Cifras para Violão e Guitarra » S »Siempre Así » Esa Mujer (Tab)

Esa Mujer
Siempre Así

Letras, cifras e tablaturas para violão, guitarra, piano, ukulele e baixo

  • INTRO---   A#  C  Am  D7  Gm7  C  F
    
            F
    Esa mujer
                  Am
    Mi fiel compañera
                    A#
    La que esta conmigo
        C           F
    La que me aconseja
                       A#
    La que día tras día
            C7           Am D7
    De ausencias me espera
              Gm            C7
    Esa mujer es mi luna mas llena
    
                    F
    Ella siempre está
                     Am
    
  •      A          B7            G#m            C#7             F#m
    ----------|--------------|----------------|---------------|-------------
    ----------|--------------|----------------|---------------|-------------
    ----------|--------------|--4-4--6-7-7----|--------6-4-3--|--3-4-6------
    -1-2------|-------2-2-1--|-------------4--|--2-4-2--------|--------4-2-1
    -----0-2--|--2-0-0-0-----|----------------|---------------|-------------
    ----------|--------------|----------------|---------------|-------------
    
    B7                E
    -------------|-------------|
    -------------|-------------|
    ----------4--|------4-1----|
    -1-2-1--1----|-1-2-1-------|
    -------------|-------------|
    -------------|-------------|
    
    
        E
    Esa mujer
                  G#m
    
  • +
    ¡Colabora con nosotros!
    Envíanos tu versión de esta canción

Letra de Esa Mujer
Esa mujer
Mi fiel compañera
La que esta conmigo
La que me aconseja
La que día tras día
De ausencias me espera
Esa mujer es mi luna mas llena
Ella siempre está
Cuando en un instante
Mis ideas más tontas
Las hace importantes
La que en mi caídas
Me tira pa lante
Esa mujer es mi mejor amante
ESTRIBILLO
Esa sonrisa que aparece a cada a instante
En los labios de su boca
La que ilumina mi vida
Que me tiene a todas horas
Enamorado niña de su semblante
(BIS)
Esa mujer
Mi eterno verano
Mi playa tranquila
Mi timón, mi mando
Faro que en la noche
Ilumina mi barco
Esa mujer es lo que yo he soñado
Su forma de ser
Es lo que me inspira
Por ella le he dado
sentido a mi vida
Siempre me da rosas
Nunca me da espinas
Esa mujer es mi mejor amiga
ESTRIBILLO
Esa sonrisa que aparece a cada a instante
En los labios de tu boca
La que ilumina mi vida
Que me tiene a todas horas
Enamorado niña de su semblante
(BIS)
LALALALALALALALALALALALALALAL
(BIS)
JDGM




[Esa Mujer acordes][Esa Mujer chords]
© LaCuerda.net · notícia legal · privacidade · es · en · pt · contato
DINAMICO