Cifras para Violão e Guitarra » S »Son by Four » A puro dolor (Tab)

A puro dolor
Son by Four

Letras, cifras e tablaturas para violão, guitarra, piano, ukulele e baixo

  •     C                    G                 Am
    Perdona si te estoy llamando en este momento
                  G                      F
    pero me hacia falta escuchar de nuevo 
                   C                   G
    aunque sea un instante tu respiracion
    
        C                        G
    Disculpa se que estoy violando
                Am 
    nuestro juramento 
                      G                 F
    se que estas con alguien, en este momento
                     C                  G 
    pero hay algo urgente que decirte hoyÇ
     
             Am         G            F      G
    Estoy muriendo, muriendo por verte 
           Am           G          F       G
    agonizando muy lento y muy fuerte
    
  •     C                    G                 Am
    Perdona si te estoy llamando en este momento
                  G                      F
    pero me hacia falta escuchar de nuevo
                   C                   G
    aunque sea un instante tu respiración
    
        C                        G
    Disculpa se que estoy violando
                Am
    nuestro juramento
                      G                 F
    se que estas con alguien, que no es el momento
                     C                  G
    pero hay algo urgente que decirte hoy
    
             Am         G            F      G
    Estoy muriendo, muriendo por verte
           Am           G          F       G
    agonizando muy lento y muy fuerte
    
  • C                    G                 Am
    Perdona si te estoy llamando en este momento
                  Em                      F
    pero me hacia falta escuchar de nuevo
                   C                   G
    aunque sea un instante tu respiracion
    
        C                        G
    Disculpa se que estoy violando
                Am
    nuestro juramento
                      Em                 F
    se que estas con alguien, en este momento
                     C                  G
    pero hay algo urgente que decirte hoy
    
             Am         Em           F      G
    Estoy muriendo, muriendo por verte
           Am           Em          F       G
    agonizando muy lento y muy fuerte
    
  • Intro   G  D/F#  Em  Bm  C  C/B  Am7  D
    
    G                       D/F#            Em
    Perdona si te estoy llamando en este momento,
                      Bm              C
    pero me hacia falta escuchar de nuevo,
                    C/B              Am7    D
    aunque sea un instante tu respiración.
    
    Disculpa se que estoy violando nuestro juramento,
    se que estas con alguien que no es el momento,
    pero hay algo urgente que decirte hoy.
    
    PRECORO
                  Em         Bm         C   D
    Que estoy muriendo, muriendo por verte,
           Em          Bm         C    D
    agonizando, muy lento y muy fuerte.
    
    CORO
    
  •     C                    G                 Am
    Perdona si te estoy llamando en este momento
                  Em                       F
    pero me hacia falta escuchar de nuevo
                   C                   G       (Riff 1)
    aunque sea un instante tu respiración
    
    E|-----------0-1-3---------
    B|-----0-1-3---------------
    G|-0-2--------------------
    D|----------------------
    A|----------------------
    E|----------------------
    
        C                        G
    Disculpa se que estoy violando
                Am
    nuestro juramento
                      Em                 F
    se que estas con alguien, en este momento
    
  • e|--0---------3-3-3-1-0------|----------------------|
    B|-----1----------------3-1--|------1--3-3/5--3--1--|
    G|--------0------------------|----2-----------------|
    D|---------------------------|----------------------|
    A|--3---------3--------------|--3-------------------|
    E|---------------------------|----------------------|
    
    e|------------------------------|-----------------------|--0---|
    B|--------1-1--------1-1--------|------2-3-3/5-3h5-1h3--|--1---|
    G|--0-0h2--------2-0-------2-0--|----1------------------|--0---|
    D|------------------------------|-----------------------|--2---|
    A|--0--0---------0---------0----|--0--------------------|--3---|
    E|------------------------------|-----------------------|--0---|
    
    
        C                    G             Am
    Perdona si te estoy llamando en este momento
                  Em                 F
    pero me hacia falta escuchar de nuevo
                   C                   G
    
  • e|---3-3-3--1-0-----|---------------|----------------------------|
    B|-0------------3-1-|---1-3-3/5-3-1-|-------1-1--------1-1-------|
    G|------------------|-2-------------|-0-0/2--------2-0-------0---|
    D|------------------|---------------|--------------------------3-|
    A|------------------|---------------|----------------------------|
    E|------------------|---------------|----------------------------|
    
    E|-------0-1-------|
    B|-1-1-3-----1/3-1-|
    G|-----------------|
    D|-----------------|
    A|-----------------|
    E|-----------------|
    
        C                    G                 Am
    Perdona si te estoy llamando en este momento
                  Em                       F
    pero me hacia falta escuchar de nuevo 
                   C                   G       (Riff 1)
    aunque sea un instante tu respiración
    
  • La afinacion del bajo es D-dropped (D A D G) 
    
    Empezamos!!!
    
    El principio el bajo esta callado...
      Q=75
     4/4
      Gtr I
      W          W          W          W
    |----------|----------|----------|------|
    |----------|----------|----------|------|
    |----------|----------|----------|------|
    |----------|----------|----------|------|
    
    
      W          W          W          W
    |----------|----------|----------|------|
    |----------|----------|----------|------|
    |----------|----------|----------|------|
    |----------|----------|----------|------|
    
    
      W          W          W          H    Q  E S S
    |----------|----------|----------|----------------|
    |----------|----------|----------|----------------|
    |----------|----------|----------|-----------0-2--|
    |----------|----------|----------|---------5------|
    
    
      H    H      Q.   E H      H    H      H    Q  Q
    |-----------|-------------|-----------|------------|
    |-----------|-------------|-----------|------------|
    |-3----2----|-0----0-
  • +
    ¡Colabora con nosotros!
    Envíanos tu versión de esta canción
  • Tutorial
    A puro dolor - Son by Four- Tutorial & Cover
    1:13

Letra de A puro dolor
Perdona si te estoy llamando en este momento
pero me hacia falta escuchar de nuevo
aunque sea un instante tu respiracion
Disculpa se que estoy violando
nuestro juramento
se que estas con alguien, en este momento
pero hay algo urgente que decirte hoyÇ

Estoy muriendo, muriendo por verte
agonizando muy lento y muy fuerte
Vida, devuelveme mis fantasias
mis ganas de vivir la vida
devuelveme el aire....
Cariño mio, sin ti yo me siento vacio
las tardes son un laberinto
y las noches me saben
a puro dolor....
Quisiera decirte que hoy estoy de maravilla
que no me ha afectado lo de tu partida
pero con un dedo no se tapa el sol
Estoy muriendo, muriendo por verte.....
Esto es lo que tengo, pronto les mando la tablatura de la cancion




[A puro dolor acordes][A puro dolor chords]
© LaCuerda.net · notícia legal · privacidade · es · en · pt · contato
DINAMICO