Cifras para Violão e Guitarra » S »Stanislao Marino » No hay hombre que te vea y viva (Tab)

No hay hombre que te vea y viva
Stanislao Marino

Letras, cifras e tablaturas para violão, guitarra, piano, ukulele e baixo

  • D                         A7
    Señor no hay palabras que puedan
                       G-A7              D
    Describir tu grandeza y tu infinito amor
     G        A7                D
    Los cielos están llenos de vida
          G                  A7
    Y el mar habla de tus proezas
    
    D                          A7
    No hay, no hay hombre que pueda
                     G    A7           D
    Describir tu grandeza  o tu reino señor
    G - A7                     D
    por que  están grande tu gloria
            G                       A7
    que no hay hombre que te vea y viva
    D                     A7
    Jehová recibe de tu siervo
                     G                     D
    
  •  FA                            LAm                        SOLm DO7
    SENOR  NO  HAY  PALABRAS  QUE  PUEDAN  DESCRIBIR  TU  GRANDESA
                      FA
    Y  TU  INFINITO  AMOR
         SOLm                       LAm          SOLm                      DO7
    LOS  CIELOS  ESTAN  LLENOS  DE  TI   Y   EL  MAR  HABLA  DE  TUS  PROESAS
    
    
        FA                         LAm
    NO  HAY  NO  HAY  HOMBRE  QUE  PUEDA
                        SOLm  DO                   FA
     DESCRIBIR  TU  GRANDESA       O  TU  REINO  SENOR
    
    
       SOLm                       LAm
    PORQUE  ES  TAN  GRANDE  TU  GLORIA
                  SOLm                     DO7
    QUE  NO  HAY  HOMBRE  QUE  TE  VEA  Y  VIVA
    
    
    
  • FA   LAm   LA# DO  FA-REm-SOLm-DO7-FA-FA7 LA# DO FA
    
    
     FA                            LAm
    SENOR  NO  HAY  PALABRAS  QUE  PUEDAN
                       LA#  DO
    DESCRIBIR  TU  GRANDEZA
                      FA  -  REm
    Y  TU  INFINITO  AMOR
         SOLm   DO7                   FA -FA7
    LOS  CIELOS     ESTAN  LLENOS  DE  TI-III
           LA# G                     DO      DO7
    Y  EL  MAA-AAR  HABLA  DE  TUS  PROEZAS
    
    
        FA                          LAm
    NO  HAY,  NO  HAY  HOMBRE  QUE  PUEDA
                       LA#   DO                   FA   - REm
    DESCRIBIR  TU  GRANDEZA       O  TU  REINO  SENOR
       SOLm  DO7                      FA      FA7
    
  • E----13~-----10-12-13p12-10-12h13-12~-----8-10-12p10-8-12p10------
    B--13-------------------------------------------------------------
    G-----------------------------------------------------------------
    D-----------------------------------------------------------------
    A-----------------------------------------------------------------
    E-----------------------------------------------------------------
    
    E--6-8-10p8-6-8~~/0-----6~-------5-6-5-5---8~---------------------
    B---------------------8---------8-----8---------------------------
    G-----------------------------------------------------------------
    D-----------------------------------------------------------------
    A-----------------------------------------------------------------
    E-----------------------------------------------------------------
    
    E--10-12-13-12-10------12-13-15-13-12-13~-------------------------
    B-----------------------------------------------------------------
    G-----------------------------------------------------------------
    D-----------------------------------------------------------------
    A-----------------------------------------------------------------
    E-----------------------------------------------------------------
    
  • +
    ¡Colabora con nosotros!
    Envíanos tu versión de esta canción

Letra de No hay hombre que te vea y viva
SENOR NO HAY PALABRAS QUE PUEDAN DESCRIBIR TU GRANDESA
Y TU INFINITO AMOR
LOS CIELOS ESTAN LLENOS DE TI Y EL MAR HABLA DE TUS PROESAS
NO HAY NO HAY HOMBRE QUE PUEDA
DESCRIBIR TU GRANDESA O TU REINO SENOR
PORQUE ES TAN GRANDE TU GLORIA
QUE NO HAY HOMBRE QUE TE VEA Y VIVA
JEOVA RECIBE DE TU SIERVO ESTA HUMILDE ALABANZA
QUE CANTO PARA TI
JESUS SE MI LUZ Y MI GUIA Y SE EL AIRE QUE RESPIRO
LALALA LALALA LALALA
LOS CIELOS ESTAN LLENOS DE TI Y EL MAR HABLA DE TUS PROESAS
JEOVA REVIENTA LAS CADENAS BENDICE TU PUEBLO JESUS
Y PON ALABANZAS Y GLORIAS Y UNIDOS ALABEMOS A DIOS
LALALA LALALA LALALA
MI NOMBRE ES JORGE AMPARAN Y TENGO 1 ANO
TOCANDO LA GUITARRA EN LA IGLESIA AL DIOS NO CONOCIDO EN MEXICALI
ESPERO QUE ESTE BIEN
!DIOS LES BENDIGA!




[No hay hombre que te vea y viva acordes][No hay hombre que te vea y viva chords]
© LaCuerda.net · notícia legal · privacidade · es · en · pt · contato
DINAMICO