Cifras para Violão e Guitarra » S »Steve Green » Aquel quien la buena obra empezó (Tab)

Aquel quien la buena obra empezó
Steve Green

Letras, cifras e tablaturas para violão, guitarra, piano, ukulele e baixo

  • Intro: Bb F Cm F Bb F
    
    Bb.   F.       Eb       F.      Dm
       Aquel quien la Buena obra empezó
    F.               Gm    F.         G
      aquel quien la buena obra empezó
         Cm7.             F.        Cm7.             F
    Será Fiel en completarla, Él es Fiel en completarla,
           Cm.     Bb.      Eb            F
    El que la comenzó, será Fiel en completarla en ti
    
    Solo: Eb F Bb F
    
    F.      Bb.           F.        Gm           Eb  Bb.    Cm7
    Si la lucha que enfrentas, a tu esperanza torno, ya sin paz,
    Eb   F.         Gm          F.                Bb
    O de tanto esperar, ya perdiendo tu canción estas,
    F. Bb.  F.            Gm.         Bb. Eb.     Bb
    Puedes creer, que su mano está en ti, seguro estas,
           Cm.       Bb.      F.      Gm         F.          Bb F
    
  • A E         Bm       E         C#m    D  E
    Aquel quien la buena obra empezó
    A E         Bm       E         C#m   Bm  E
    Aquel quien la buena obra empezó
          Bm                  E
    Será fiel en completarla
           Bm                 E
    Él es fiel en completarla
            Bm     A/D#
    El que la comenzó
         D              E       A
    Será fiel en completarla en ti.
    
           A           E/G#
    Si la lucha que enfrentas
      F#m      C#m       D           Bm
    A tu esperanza tornó ya sin paz
          E
    O de tanto esperar
           E7                  A     E7
    
  • e|----------0--------------|---------0------5-|
    B|----0-2-0-----3-3/5-2-0--|---0-2-0----------|
    G|--2----------------------|-2-----------6h7--|
    D|-------------------------|------------------|
    A|--0-----------2----------|-0----------7-----|
    E|--------4----------------|-------4----------|
    
    e|------0-*---------4-2-----------4------------5-----|
    B|----0---*-------------0-------5---5--------3---3---|
    G|--2-----*-------2-----------4-------4----4-------4-|
    D|--------*---------2-2-----6------------2-----------|
    A|--0-----*-----4---------4--------------------------|
    E|----4---*-0-2--------------------------------------|
        Aquel   quien la buena obra empezo
    
    e|------0-*---------4-2-----------4-------------2-----|
    B|----0---*-------------0-------5---5---------2---2---|
    G|--2-----*-------2-----------4-------4-----3-------3-|
    D|--------*---------2-2-----6-------------4-----------|
    A|--0-----*-----4---------4---------------------------|
    
  • +
    ¡Colabora con nosotros!
    Envíanos tu versión de esta canción

Letra de Aquel quien la buena obra empezó
Aquel quien la buena obra empezó
Aquel quien la buena obra empezó
Será fiel en completarla
Él es fiel en completarla
El que la comenzó
Será fiel en completarla en ti.
Si la lucha que enfrentas
A tu esperanza tornó ya sin paz
O de tanto esperar
Ya perdiendo tu canción estás
Puedes creer que su mano esta en ti
Seguro estás nunca te ha de abandonar
Eres su gozo y su gran tesoro aquí
//Aquel quien la buena obra empezó
Aquel quien la buena obra empezó
Será fiel en completarla
Él es fiel en completarla
El que la comenzó
Será fiel en completarla en ti. //
Este canto me ha ayudado mucho y espero que sea de bendición
para ustedes también.
Dios los bendiga.




[Aquel quien la buena obra empezó acordes][Aquel quien la buena obra empezó chords]
© LaCuerda.net · notícia legal · privacidade · es · en · pt · contato
DINAMICO