Cifras para Violão e Guitarra » S »Los Sultanes » El chabon (Tab)

El chabon
Los Sultanes

Letras, cifras e tablaturas para violão, guitarra, piano, ukulele e baixo

  •      C    Cm   Gm   Fm   G#   G7   F    G    Am
    e----0----3----3----1----4----3----1----3----0
    B----1----4----3----1----4----3----1----3----1
    G----0----5----3----1----5----4----2----4----2
    D----2----5----5----3----6----3----3----5----2
    A----3----3----5----3----6----5----3----5----0
    E----0----3----3----1----4----3----1----3----0
    
    
    INTRO :  Cm  Gm  Fm  G#  G7  Cm
    
                             Gm                             Fm
    Estoy saliendo con un chavon ya mas de un año van casi dos
    
                                   e|-------3--3-----------| 
                                   B|------4-----4---------|
                                   G|-----5--------5-------| 
                                   D|----5-----------5-----|
                                   A|---3--------------3---|
                                   E|--3-------------------|
    
  • |----------------------------------|
    |--------4-4-4--3h4p3--------------|
    |--5-5-5----------------3----------|
    |---------------------5------------|
    |----------------------------------|
    |----------------------------------|
    
    |----------------------------------|
    |--------4-4-4--3h4p3--------------|
    |--5-5-5---------------------------|
    |---------------------5-6----------|
    |----------------------------------|
    |----------------------------------|
    
    |----------------------------------|
    |-------------4--------------------|
    |--5T----5-----5-------------------|
    |----------6----6-5----------------|
    |----------------------------------|
    |----------------------------------|
    
  • Bueno aki les va el INTRO del Chabòn...
    lo saquè a oìdo...y creo k es el correcto...
    espero les guste...!!!!!
    Cualkier sugerencia escrìbanme: hugo_chavez16@hotmail.com
    
    e------------------------------------------------------
    B-1-1-1---4-4-4---3------------------------------------
    G--------------------0-3-------------------------------
    D------------------------------------------------------
    A------------------------------------------------------
    E------------------------------------------------------
    
    e------------------------------------------------------
    B-1-1-1---4-4-4---3------------------------------------
    G--------------------0-1-------------------------------
    D------------------------------------------------------
    A------------------------------------------------------
    E------------------------------------------------------
    
    e------------------------------------------------------
    B-1-1-1-1-1-1-1-1-1-------4-1--------------------------
    G--------------------1-1-----------------
  • E-----------------------------------------------------------------------
    B-----------------------------------------------------------------------
    G--7--7--7--10--10--10--9---------7--7--7--10--10--10--9--------7--7--7-
    D--------------------------7--10--------------------------7--8----------
    A-----------------------------------------------------------------------
    E-----------------------------------------------------------------------
    
    
    E-----------------------------------------------------------------------
    B----------------------------------------------------------10--8--------
    G-7--7--7--7--7--7--7----------10--7-------------6--7--9-----------10--9
    D----------------------8----8----------8--7--8--------------------------
    A-----------------------------------------------------------------------
    E-----------------------------------------------------------------------
    
    
    E--------------------------------------
    B----------10--8-----------------------
    G--7--8-----------10
  • +
    ¡Colabora con nosotros!
    Envíanos tu versión de esta canción

Letra de El chabon
Estoy saliendo con un chavon ya mas de un año van casi dos
estoy enamorado y saben que me gustaria darle un varon
El desgraciado me hizo operar nadie sabia de esa traicion
me fue engañando me parecio el puso trampa a mi corazon
Decile si el no quiere bailar conmigo
decile que no sufra por nuestro amor
a vos que te hace caso que sos su amigo
ya no voy a negarme por su traicion
Decile si el no quiere bailar conmigo
decile que no sufra por nuestro amor
a vos que te hace caso que sos su amigo
ya no voy a negarme por su traicion
REPETIR INTRO
En la farmacia me lo encontre un gran escandalo alli se armo
le hice una escena y no sabes un policia nos separo
Hoy me llamo a mi celular se disculpo y me invito a cenar
paseamos juntos por Santa Fe pero yo se el me va a engañar
Decile si el no quiere bailar conmigo
decile que no sufra por nuestro amor
a vos que te hace caso que sos su amigo
ya no voy a negarme por su traicion (REPETIR 2 VECES ESTA PARTE)
Decile si no quiere bailar conmigo
decile que no sufro por nuestro amor
a vos que te hace caso que sos su amigo
ya no voy a vengarme por su traicion (REPETIR 3 VECES ESTA PARTE)
Cualquier consulta o sugerencia: renzovera@mixmail.com




[El chabon acordes][El chabon chords]
© LaCuerda.net · notícia legal · privacidade · es · en · pt · contato
DINAMICO