Cifras para Violão e Guitarra » T »Tan Bionica » Loca (Tab)

Loca
Tan Bionica

Letras, cifras e tablaturas para violão, guitarra, piano, ukulele e baixo

  • Abaug:  4x655x
    Dsus:   xx0233
    Gsus:   355533
    Baug:   x2x443 o x21003
    D/E:    xx2232
    D/F#:   200232 o xx4235
    D/C:    x30232
    D/B:    x20232
    Em/D:   xx0000
    Am6aug: x02212
    D9:     x54230 o xx0230
    G/F#:   220033
    
    --------------
    
    G      B7             Em
     Loca vos no entendés nada de vivir
    Am        ( Abaug )       Dsus          D
     Se fueron con septiembre tus ganas de mí
    G      B7            Em
    
  • G    Bm              Em
    Loca vos no entendés nada de vivir.
    Am         C              D
    Se fueron con septiembre tus ganas de mí.
    G    Bm              Em
    Y una forma errante de permanecer
    Am         C              D
    llenó de noches todo nuestro amanecer.
    
    C-D-Em-D-C-D
    
    G    Bm              Em
    Loca vos no entendés nada del amor.
    Am         C              D
    Yo no puedo cantar Blackbird como Paul.
    G    Bm              Em
    Loca, tengo ganas locas de volver
    Am         C              D
    como flores que volvieron a crecer.
    
    
  • que tal gente de la cuerda esta es mi primera colaboracion je
    
    cualquier cosa avisenme que les parece!
    
    Saludos
    
    e|----------------------------------------------------------------------
    B|----------------------------------------------------------------------
    G|---------------------------------------5-5-5-5-5-7-5-4-2----0---------
    D|--9-9-9-9-7--10-9-7-------------------------------------------4-------
    A|---------------------10--------7--10----------------------------------
    E|---------------------------10-----------------------------------------
    
    e|-------------------------3~---8-7-8-7-8-7-----------10~---------
    B|---------------4~---5~--------------------10-8-7~---------------
    G|--------2-4~----------------------------------------------------
    D|----0-4---------------------------------------------------------
    A|----------------------------------------------------------------
    E|--------
  • LA canción!!
    
    
    1° Verso:
    
          SOL         SIm         MIm
    
    e|----------3-----------2-----------0-----------0------------
    B|----------3-----------4-----------0-----------0------------|
    G|----------4-----4--4--4--4--------0-----------0------------|
    D|----5--5--5--5--4--4--4--4--2--2--2--2--2--2--2--2---------|
    A|----5--5--5--5--2--2--2--2--2--2--2--2--2--2--2--2---------|
    E|----3--3--3--3--------------0--0--0--0--0--0--0--0---------|
                                                                 |
          LAm         DO          RE                             | X 2
                                                                 |
    e|----------0-----------3-----------5-----------5------------|
    B|----------1-----------5-----------7-----------7------------|
    G|----2--2--2--2--5--5--5--5--7--7--7--7--7--7--7--7---------|
    D|----2--2--2--2--5--5--5--5--7--7--7--7--7--7--7--7---------|
    
  • +
    ¡Colabora con nosotros!
    Envíanos tu versión de esta canción

Letra de Loca
Loca vos no entendés nada de vivir.
Se fueron con septiembre tus ganas de mí.
Y una forma errante de permanecer
llenó de noches todo nuestro amanecer.
Loca vos no entendés nada del amor.
Yo no puedo cantar Blackbird como Paul.
Loca, tengo ganas locas de volver
como flores que volvieron a crecer.
Loca, me gustás así de loca
inestable y caprichosa.
Mucho mejores que el vino
son los besos de tu boca.
Y tal vez es porque vivo
de la forma en que mal vivo
que te digo lo que digo,
que me encuentro tan perdido.
Loca, sólo lo que escribo es lo que soy
no tengo mucha energía para hoy.
Loca, tengo ganas locas de volver
como flores que volvieron a crecer.
Me gustás así de loca.
Me gustás así de loca.
inestable y caprichosa
Mucho mejores que el vino
son los besos de tu boca.
Y tal vez es porque vivo
de la forma en que mal vivo
que te digo lo que digo,
que me encuentro tan perdido.
La nostalgia es un espejo
que duplica lo vivido
rescatando nuestro tiempo
de las garras del olvido.
Y es que no tengo más nadie
que pelear más que conmigo
porque eternos como el tiempo
son las noches y el vacío.
Porque nado hasta encontrarte
en este salvaje río.
Porque no me queda nada
que perder que lo vivído.
Loca, vos no entendés nada de vivir. (x4)




[Loca acordes][Loca chords]
© LaCuerda.net · notícia legal · privacidade · es · en · pt · contato
DINAMICO