Cifras para Violão e Guitarra » T »Los Tigres del Norte » Ni Parientes Somos (Tab)

Ni Parientes Somos
Los Tigres del Norte

Letras, cifras e tablaturas para violão, guitarra, piano, ukulele e baixo

  • Intro:  A#-A#7-D#-F7-A#-F7-A# 
    
                                    
    Porqué voy a llorar
        F7    A#             
    cuando te vayas
                          
    si alguna vez 
                   F7     
    tenía que terminar
                          
    este cariño ardiente
                          
    como el fuego
                          
    si sé que el fuego
                    A#       
    se tiene que apagar
    
                        
    
  • Intro:  A#-A#7-D#-F7-A#-F7-A#
    
    A------------------------------------------------
    D------------------------------------------------
    G-7-10-10-9-10-7-10------------------------------
    B-----8------------11-------11-11-11-10-11-11-9-8
    e--------------------11-8-10-----8--------8------
    
    D------------------------------------------------
    G------------------------------------------------
    B-11--------------------------11-11-----11-10----
    e---11-11-11-10-8-8-10-10-10-8-----8-8-8-----11--
    
    D------------
    G------------
    B-----11-----
    e-10-8-------
    
    Porqué voy a llorar
        F7    A#
    
  • +
    ¡Colabora con nosotros!
    Envíanos tu versión de esta canción

Letra de Ni Parientes Somos
Porqué voy a llorar
cuando te vayas

si alguna vez
tenía que terminar

este cariño ardiente

como el fuego

si sé que el fuego
se tiene que apagar

Porqué voy a llorar
cuando te alejes
y digas que ya no
regresarás
es cierto que me duele
que me dejes
pero como otras veces
ya se me pasará
porqué voy a llorar
por tu abandono
si ni parientes somos
lo mismo a mí me da

Si antes que tú
ya había tenido otros amores
que en su momento
quize tanto como a tí
cuando alguien muere
siempre se le mandan flores
y tú ni flores
vas a recibir de mí
- Música -
Porqué voy a llorar

cuando te alejes.....(Se repite).




[Ni Parientes Somos acordes][Ni Parientes Somos chords]
© LaCuerda.net · notícia legal · privacidade · es · en · pt · contato
DINAMICO