Cifras para Violão e Guitarra » U »la Unión » Lobo-Hombre en París (Tab)

Lobo-Hombre en París
la Unión

Letras, cifras e tablaturas para violão, guitarra, piano, ukulele e baixo

  • e--5-----9--------12--------------
    B--5-------10-----------9---------
    G--6----------9-------9---11------
    D--7-------------------------11~~-
    A--7------------------------------
    E--5------------------------------
    
       e--x---           e--x---
       B--x---           B--x---
    A5 G--x---       C#5 G--6---
       D--7---           D--6---
       A--7---           A--4---
       E--5---           E--x---
    
    
    
    A5                  C#5
     Cae la noche y amanece en Paris,
    A5                 C#5
     En el día en que todo ocurrió,
    
  • A                  C#m
     Cae la noche y amanece en Paris,
    A                 C#m
     En el día en que todo ocurrió,
    A                 C#m
     como un sueño de loco sin fin
    A                  C#m             Bm
     la fortuna se ha reído de ti, ja, ja,
    
     Sorprendido espiando
    C#m                     Bm
     el lobo esta fondeando y
                F         E         A
     es mordido   por el mago del Siam.
    
                   C#m
     La luna llena sobre Paris
    A                   C#m
     ha transformado en hombre a Dennis.
    
    
  • Intro: A C#m (4)
    
    
    Verso 1:
    
    A                    C#m
      Cae la noche y amanece en París
    A                   C#m
      en el día en que todo ocurrió
    A                   C#m
      como un juego de locos sin fin
    A                   C#m            Bm
      la fortuna se a reido de ti... ahá,
    
    
    
    Puente 1:
    
                           C#m
      Sorprendido espiando
    
  • Primero enpiesa el teclado y tu enpiesas en el (00:10)
    
    G:-----------------------------------
    D:-----------------------------------
    A:----------------4-4-4-4-4-4-4-4-4--
    E:-5-55-55-555-4-5-------------------
    
    G:-----------------------------------
    D:----------------------------6-4----
    A:----------------4-4-4-4-4-4--------
    E:-5-55-55-555-4-5-------------------
    
    G:-----------------------------------
    D:----------------------------4-4----
    A:----------------4-4-4-4-4-4--------
    E:-5-55-55-555-4-5-------------------
    
    G:-----------------------------------
    D:------------------------6/7-7-6-7--
    A:----------------4-4-4-4------------
    E:-5-55-55-555-4-5-------------------
    
    G:-----------------------------------
    D:------------------------4-6/7-6h7--
    A:----------------4-4-4-4------------ x(2)
    E:-5-55-55-555-4-5-------------------
    
    G:-----------------------------------
    D:-----------------------------------
    A:----------------4-4-4-4-4-4-4-4-4--
    E:-5-55-55-555-4-5------------
  • la version que esta mandaron antes le falta por eso mando esta version que yo 
    creo que esta mas acertada
    
    intro
    -------------------|-------------------|
    -------------------|-------------------|
    -------------------|4-4-4-4-4-4-4-4-4-4|
    5-5-5-5-5-5h7-5-7-5|-------------------|
    
    
    -------------------|---------------|
    -------------------|------------4--|
    -------------------|4-4-4-4-4-4---4|
    5-5-5-5-5-5h7-5-7-5|---------------|
    
    -------------------|---------------|
    -------------------|------------4-4|
    -------------------|4-4-4-4-4-4----|
    5-5-5-5-5-5h7-5-7-5|---------------|
    
    entra el verso
    1er.estrofa
    -------------------|-----------------|
    -------------------|--------6/7-7-6-7|
    -------------------|4-4-4-4----------|
    5-5-5-5-5-5h7-5-7-5|-----------------|
      cae la noche....
    
    2da.estrofa
    -------------------|-----------------|
    -------------------|--------4-6/7-6h7|
    -------------------|4-4-4-4----------|
    5-5-5-5-5-5h7-5-7-5|-----------------|
        en el dia....
    
  • Bueno aqui les dejo otra tablatura para la bateria esta basante facil y
    para no dejarselas mas complicado toda la cancion es lo mismo el ritmo
    del intro es el que se lleva en toda la cancion, solo que separe las
    partes para que no se hagan bolas.
    
    Les dejo mi mail por si tienen dudas o aclaraciones
    jacko_24horas@hotmail.com
    Califiquen y Agrenguenme en Facebook :D
    
    Lobo Hombre En Paris – La Union
    
    Intro (0:09)
      |---------------------------------x3--------------------------------|
    H |x-x-x-x-x-x-x-x-|x-x-x-x-x-x-x-x-|x-x-x-x-x-x-x-x-|x-x-x-x-x-x-x-x-|
    S |----o-------o---|----o-------o---|----o-------o---|----o-------o---|
    B |o-----o-o-------|o-----o-o-------|o-----o-o-------|o-----o-o-------|
       1 + 2 + 3 + 4 +  1 + 2 + 3 + 4 +  1 + 2 + 3 + 4 +  1 + 2 + 3 + 4 +
    
    Verso (0:29)
      |---------------------------------x4--------------------------------|
    H |x-x-x-x-x-x-x-x-|x-x-x-x-x-x-x-x-|x-x-x-x-x-x-x-x-|x-x-x-x-x-x-x-x-|
    S |----o-------o---|----o-------o---|----o-------o---|----o-------o---
  • Esta cancion tiene ya muchos años de haberse dado a conocer
    pero la tablatura para harmonica nunca fue publicada
    ...hela aqui...disfrutenla:
    
    y recuerden que es para harmonica en tono DO (c)
    
    A los 2.03 minutos cantan y tocan:
    
    Aauuh!! lobo hombre en paris
      5          (se sopla el numero cinco y se pronuncia junto
                    con el cantante ''aauuh'')
    
    Su nombre es Denisse
                     3--5 (arrastrar del tres al cinco)
    (4) 5 (4) 4 3—5 (4) 5 (2) (3) 4 (4) 5 (5) 5
    
    el hombre lobo esta en paris, su nombre denisse
                                                    3--5
    la luna llena sobre paris
                             3--5
    ha transformado en hombre a denisse
                                      3--5
    
    (en esta parte hay que fijarse mas en el ritmo que lleva el 
    vocalista y seguirlo con la harmonica)
    
    Mientras esta esperando, junto a el se ha sentado ¡¡oh!!
        (4) 5 (4) 4 3--5   (4) 5 (aprox. dos o tres tiempos por nota 
    dependiendo el ritmo de su 
  • Esta es mi primera transcripcion para teclado y espero que sea de su gusto.
    
    Introducción:
    Se toca el acorde La (La-Do-Mi)  y después:
    
    Do#  Mi  Mi  Mi  Lab  Do#  Fa#  Do#
    
    La	        C#m	
    Cae la noche y amanece en Paris
    do#  mi  do#  la  fa#  lab  do# do#
    
    La	       C#m
    En el dia en que todo ocurrio
    do#  mi  do#  la  fa#  lab  do# do#
    
    La	        C#m
    Como un sueño de locos sin fin
    do#  mi  do#  la  fa#  lab  do# do#
    
    La	      C#m
    La fortuna se ha reido de ti
    do#  mi  do#  la  fa#  lab  do# do#
    
    Do        Re
    ¡A ah! Sorprendido espiando
    do# re  re re mi do#  re  re
    
    C#m
    Un lobo escapa aullando
    mi  mi fa# mi  do#  mi
    
    Re
    Y es mordido
    re re mi re
    
    Fa          Mi	La
    Por el mago del Siam
    fa fa sol fa fa mi mi
    
    La	      C#m
    La luna llena sobre Paris
    do#  mi  do#  la  fa#  lab  do# do#
    
    La	        C#m
    Ha transformado en hombre a Denis
    do#  mi  do#  la  fa#  lab  do# do#
    
    La	      C#m
    Rueda por los bares del bulevar
    do#  mi  do#  la  fa#  la
  • Esta es mi primera transcripcion que mando, espero sea de 
    su agrado.
    
    Introducción:
    
    Se toca el acorde La (La-Do-Mi)  y después:
    
    Do#  Mi  Mi  Mi  Lab  Do#  Fa#  Do#
    
    
    La	                 C#m	
    Cae la noche y amanece en Paris
    do#  mi  do#  la  fa#  lab  do# do#
    
    La	                 C#m
    En el dia en que todo ocurrio
    do#  mi  do#  la  fa#  lab  do# do#
    
    La	                C#m
    Como un sueño de locos sin fin
    do#  mi  do#  la  fa#  lab  do# do#
    
    La	                 C#m
    La fortuna se ha reido de ti
    do#  mi  do#  la  fa#  lab  do# do#
    
    Do        Re
    ¡A ah! Sorprendido espiando
    do# re  re re mi do#  re  re
    
    C#m
    Un lobo escapa aullando
    mi  mi fa# mi  do#  mi
    
    Re
    Y es mordido
    re re mi re
    
    Fa          Mi	La
    Por el mago del Siam
    fa fa sol fa fa mi mi
    
    La	             C#m
    La luna llena sobre Paris
    do#  mi  do#  la  fa#  lab  do# do#
    
    
    
    La	                C#m
    Ha transformado en hombre a Denis
    do#  mi  do#  la  fa#  lab  do# do#
    
    
    La	           
  • +
    ¡Colabora con nosotros!
    Envíanos tu versión de esta canción
  • Tutorial
    HD
    Como tocar LOBO HOMBRE EN PARIS en guitarra - La Union [Tutorial Somos Posers]
    4:18
  • Tutorial
    HD
    Como tocar LOBO HOMBRE EN PARIS - La Unión; Tutorial KARMA GUITAR
    6:58

Letra de Lobo-Hombre en París
Cae la noche y amanece en Paris,
En el día en que todo ocurrió,
como un sueño de loco sin fin
la fortuna se ha reído de ti, ja, ja,
Sorprendido espiando
el lobo esta fondeando y
es mordido por el mago del Siam.
La luna llena sobre Paris
ha transformado en hombre a Dennis.
Rueda por los bares del bulevar
se ha alojado en un sucio stand ja, ja,
mientras esta cenando
junto a el se ha sentado
una joven, con la que ira a contemplar
la luna llena sobre Paris,
algunos francos cobra Dennis Auuuh.
Lobo hombre en París Auuuh
su nombre Dennis.
El Hombre Lobo esta en París
su nombre es Dennis.
La luna llena sobre París
ha transformado en hombre a Dennis,
mientras esta cenando
junto a él se ha sentado
una joven con la que va a contemplar
la luna llena sobre París
ha transformado en hombre a Dennis Auuuh
lobo-hombre en París Auuuh
su nombre es Dennis




[Lobo-Hombre en París acordes][Lobo-Hombre en París chords]
© LaCuerda.net · notícia legal · privacidade · es · en · pt · contato
DINAMICO