Cifras para Violão e Guitarra » V »Villancicos » Noche de paz (Tab)

Noche de paz
Villancicos

Letras, cifras e tablaturas para violão, guitarra, piano, ukulele e baixo

  •    LA                           MI   MI7       LA
    1. NOCHE DE PAZ, NOCHE DE_AMOR; TODO DUERME_EN DERREDOR.
    RE                     LA             RE                    LA
    ENTRE LOS ASTROS QUE_ESPARCEN SU LUZ. BELLA_ANUNCIANDO_AL NIÑITO JESÚS,
    MI          MI7       LA               MI7       LA
    BRILLA LA_ESTRELLA DE PAZ, BRILLA LA_ESTRELLA DE PAZ.
    
       LA                           MI   MI7      LA
    2. NOCHE DE PAZ, NOCHE DE_AMOR; MIRA QUÉ GRAN RESPLANDOR
    RE                    LA          RE                LA
    LUCE_EN EL ROSTRO DEL NIÑO JESÚS, EN EL PESEBRE DEL MUNDO LA LUZ,
    MI          MI7       LA               MI7       LA
    BRILLA LA_ESTRELLA DE PAZ, BRILLA LA_ESTRELLA DE PAZ.
    
       LA                           MI   MI7  LA
    3. NOCHE DE PAZ, NOCHE DE_AMOR; AL DIVINO SALVADOR
    RE                 LA                RE                  LA
    QUE POR NOSOTROS NACIÓ_EN UN PORTAL. HIMNOS CANTEMOS DE_AMOR CELESTIAL.
     MI         MI7          LA               MI7          LA
    ¡GLORIA POR SIEMPRE_AL SEÑOR! ¡GLORIA POR SIEMPRE_AL SEÑOR!
    
  • A
    Noche de paz, noche de amor
    E           A        A7
    Todo duerme en derredor
    D                 A            A7
    Entre los astros que esparcen su luz
    D                A
    Bella anunciando al niño Jesús
    E                  A
    Brilla la estrella de paz
    A         E         A
    Brilla la estrella de amor
    
    A
    Noche de paz, noche de amor
    
    E        A
    Ved, que bello resplandor
    D                A         A7
    Luz en el rostro del niño Jesus
    
  • e||---------------------------|-----------------------|
    B||---------------------------|--3--3--0--0--1--1-----|
    G||·--0--2--0-----0--2--0-----|--------------------0--|
    D||·-----------2-----------2--|-----------------------|
    A||---------------------------|-----------------------|
    E||---------------------------|-----------------------|
    
    e||---------------------------------|--------------------------------|
    B||------------1--0-----------------|-----------1--0-----------------|
    G||---2--2--2--------2--0--2--0-----|--2--2--2--------2--0--2--0-----|
    D||------------------------------2--|-----------------------------2--|
    A||---------------------------------|--------------------------------|
    E||---------------------------------|--------------------------------|
    
    e||------------1--0--------0--|-----------|---------------||
    B||---3--3--3--------0--1-----|--1--------|---------------||
    G||---------------------------|-----0-----|--0-----------·||
    D||---------------------------|--------2--|-----3-
  •   G
    |-------0-----|----------------|-------0-----|----------------|
    |-3--------3--|-0--------0-----|-3--------3--|-0--------1--0--|
    |-0--0--------|-0--0--------0--|-0--0--------|-0--0-----------|
    |-0-----------|-0-----0--------|-0-----------|-0-----0--------|
    |-2-----------|-2--------------|-2-----------|-2--------------|
    |-3-----------|-3--------------|-3-----------|-3--------------|
    
    
      D7                    G                            C
    |-5-----5--|-2--------|-3------3--|----------------|-0--------0--|
    |-3-----3--|-1--0-----|-0---------|-3--------------|-1-----1-----|
    |-2--------|-------2--|-0---------|-0--0-----------|-0--0--------|
    |----0-----|----------|-----0-----|-0-----0--------|-2-----------|
    |----------|----------|-----------|-2--------0--2--|-3-----------|
    |----------|----------|-----------|-3--------------|-------------|
    
                    G                              C
    |-3-----2--0--|-------0-----|----------------|-0--------0-|-3-----2---0-|
    |-1-----------|-3--------3--|-0--------------|-1-----1----|-1-----------|
    
  • G             G
    Noche de paz, noche de amor;
    D7             G
    todo duerme en derredor,
    C            G
    sólo velan murando la faz
    C               G
    de su niño en angélica paz,
    D7                G
    José y María en Belén,
    G        D7       G
    José y María en Belén.
    
    G             G
    Noche de Paz, noche de amor;
    D7            G
    de Dios Hijo, luz de amor,
    C                  G
    fulgor irradia de su santa faz
    C                G
    
  • ESTO ES 'NOCHE DE PAZ' PARA ARMONICA.
    
    RECUERDA QUE SI EL NUMERO APARECE ENTRE PARENTESIS, 
    HAY QUE ASPIRAR, SI NO, SIMPLEMENTE SOPLA.
    
    6(6)65
    
    6(6)65
    
    (8)(8)(7)(7)776
    
    (6)(6)7(7)(6)6(6)65
    
    (6)(6)7(7)(6)6(6)65
    
    (8)(8)(9)(8)(7)7    8
    
    654(5)(6)(7)7
    
    POR UNA CULTURA EN PRO DE LOS GRAFITEROS...    '¡ANTECK!'...
    
    ESCRIBEME A lora_jr@atame.org
  • (6/8) (C)
    
    
    
    (Primera estrofa)
    
    
      C
    ¡No - che de paz, no - che de_a - mor!
      G     A  G  E    G     A   G     E
    
     G7                     C
    To - do_o duer - me_en de - rre_e - dor,
     D    D B   B      B    C     C G    G
    
    F                                C
    En - tre los as - tros que_es - par - cen su luz,
    A      A  A  C      B     A      G     A   G  E
    
     F                                    C
    Be - lla_a - nun - cian - do_al ni - ñi - to Je - sús,
     A      A     A      C      B    A    G    A  G    E
    
      G7                         F   C
    Bri - lla la_es - tre - lla de pa_az,
      D     D   D       F     D  B  C E
    
                        G7        C
    Bri - lla la_es - tre lla de paz.
      C     G   E       G   F  D  C
    
    
    (Segunda estrofa)
    
    
      C
    ¡Noche de paz, noche de amor!,
    G7               C
    Oye humilde el fiel pastor,
     F                   C
    coros celestes que anuncian salud,
      F                    C
    gracias y glorias en gran plenitud,
     G7               
  • +
    ¡Colabora con nosotros!
    Envíanos tu versión de esta canción
  • Tutorial
    HD
    Como tocar "Noche de Paz" en Guitarra - Acordes + Punteo ( Fácil )
    8:52
  • Tutorial
    HD
    Villancico Noche de Paz en Guitarra Tutorial acorde como tocar villancicos en guitarra facil
    3:30
  • Tutorial
    HD
    Como tocar Noche de Paz en Guitarra Acustica (HD)
    Tutorial Especial navideñas
    5:19
  • Tutorial
    Como tocar Los Villancicos en el Violin Tema NOCHE DE PAZ
    5:08
  • Tutorial
    HD
    Cómo tocar Noche de paz en la guitarra
    Tutoriales de villancicos fáciles
    4:37

Letra de Noche de paz
1. NOCHE DE PAZ, NOCHE DE_AMOR; TODO DUERME_EN DERREDOR.
ENTRE LOS ASTROS QUE_ESPARCEN SU LUZ. BELLA_ANUNCIANDO_AL NIÑITO JESÚS,
BRILLA LA_ESTRELLA DE PAZ, BRILLA LA_ESTRELLA DE PAZ.
2. NOCHE DE PAZ, NOCHE DE_AMOR; MIRA QUÉ GRAN RESPLANDOR
LUCE_EN EL ROSTRO DEL NIÑO JESÚS, EN EL PESEBRE DEL MUNDO LA LUZ,
BRILLA LA_ESTRELLA DE PAZ, BRILLA LA_ESTRELLA DE PAZ.
3. NOCHE DE PAZ, NOCHE DE_AMOR; AL DIVINO SALVADOR
QUE POR NOSOTROS NACIÓ_EN UN PORTAL. HIMNOS CANTEMOS DE_AMOR CELESTIAL.
¡GLORIA POR SIEMPRE_AL SEÑOR! ¡GLORIA POR SIEMPRE_AL SEÑOR!
4. NOCHE DE PAZ, NOCHE DE_AMOR; JESÚS NACE_EN UN PORTAL,
LLENA LA TIERRA LA PAZ DEL SEÑOR, LLENA LAS ALMAS LA GRACIA DE DIOS,
PORQUE NACIÓ_EL REDENTOR, PORQUE NACIÓ_EL REDENTOR.
5. NOCHE DE PAZ, NOCHE DE_AMOR; ¡NOCHE BUENA DEL SEÑOR!
CANTAN LOS ÁNGELES AL EMANUEL: "GLORIA_EN LOS CIELOS AL REY DE_ISRAEL,
PAZ EN LA TIERRA Y_AMOR; PAZ EN LA TIERRA Y_AMOR".
6. NOCHE DE PAZ, NOCHE DE_AMOR; HA NACIDO_EL REDENTOR,
YA LOS PASTORES LE VIENEN A VER, SUS CORAZONES LE VAN A_OFRECER
A SU DIOS Y SALVADOR; A SU DIOS Y SALVADOR.
7. NOCHE DE PAZ, NOCHE DE_AMOR; ALABEMOS AL SEÑOR
QUE_EN ESTA NOCHE SE DIGNÓ VENIR A LOS HUMILDES PARA REDIMIR.
¡AMOR AL DIOS DEL AMOR! ¡AMOR AL DIOS DEL AMOR!




[Noche de paz acordes][Noche de paz chords]
© LaCuerda.net · notícia legal · privacidade · es · en · pt · contato
DINAMICO