Cifras para Violão e Guitarra » V »Los Visconti » Siempre solo (Tab)

Siempre solo
Los Visconti

Letras, cifras e tablaturas para violão, guitarra, piano, ukulele e baixo

  • -------------------6
    -------0-1-2-------5
    -------------------4
    -------------------3
    -------------------2
    -------------------1
    
    Bajo para cambio de Do a Fa
    -------------------6
    -------0-1-2-------5
    -------------------4
    -------------------3
    -------------------2
    -------------------1
    
    En la tercera línea de la primera estrofa para el cambio de Do a Mi
    -------------------6
    ---3---------------5
    -----0-1-2---------4
    -------------------3
    
  • Bueno ahi les va mi segunda transcripcion de los 
    visconti un grupo buenaso esta bien facil solo escuchen
    el disco.
    
    1------------6-6-5-6-5-6--8-10-13h10----10-13-10-13-10--
    2----5-6-5---8-8-6-8-6-8-10-12-------12----12-12-12-12--
    3--7-------7--------------------------------------------
    
    1--13-10--8-5-------------5-5-5-------------------------
    2--12-12-10-6---5-6-8-6-5-------5-6-8-6-5-6-6-6h5-5-5---
    3-------------------------------------------------------
    
    1-------------------------------------------------------
    2--5/3-3------------------------------------------------
    3-------------------------------------------------------
    
    Eso fue todo si alguien tiene el tab de mas canciones
    de visconti que las mande en todo caso luego les mando el tab de veneno
    estoy trabajando en ello
    Comentarios insultos o sugerencias ya saben a dondE
    ¡¡¡¡¡Y UN SALUDASO PARA LA MAFER!!!!!!!!!!!
  • ------------------------------------------6
    ------------------------------------------5
    ------------------------------------------4
    --7------7--------------------------------3
    ---5-6-5----8-8---7-8-7-8---9-11----------2
    ------------6-6---5-6-5-6---8-10----------1
                SOLm            SIb
    ------------------------------------------6
    ------------------------------------------5
    ------------------------------------------4
    ------------------------------------------3
    -11-11-11--11-11-11--11-11-11-11--9-6-----2
    -13-10-----10-13-10--10-13-10-10--8-5-----1
                                      FA 
    ------------------------------------------6
    ------------------------------------------5
    ------------------------------------------4
    ------------------------------------------3
    --5-6-8-6-5---------5-6-8-6-5-------------2
    ------------5-5---------------5-5---------1
    
  • +
    ¡Colabora con nosotros!
    Envíanos tu versión de esta canción

Letra de Siempre solo
Bajo para cambio de Do a Fa
En la tercera línea de la primera estrofa para el cambio de Do a Mi
Bajo para cambio de Lam a Fa
Siempre solo
(Los visconti)
Sé que mi pena no te importa,
Se que de mi llanto tu te burlas,
Se que para ti no valgo nada,
que no soy mas que un triste bohemio,
Se que para ti no valgo nada,
que no soy mas que un triste bohemio.
En la segunda estrofa se usan las mismas notas que en la primera
Por eso quieres apartarme de tu lado,
Sin importarte alma de mi,
es mi destino seguir siempre muy solo,
y no te culpo quizás tengas razón,
es mi destino seguir siempre muy solo,
y no te culpo quizás tengas razón.
Estos son los bajos de la tercera estrofa
Bajo para cambio de Rem a Fa
Bajo para cambio de Do a Mi
/Plazo doy a la vida, para que tu regreses,
Para que tu vuelvas como te conocí,
Y en un sollozo, de triste llanto,
me des un beso, por mi perdón./
(Se repite toda la canciòn.)




[Siempre solo acordes][Siempre solo chords]
© LaCuerda.net · notícia legal · privacidade · es · en · pt · contato
DINAMICO