Cifras para Violão e Guitarra » A »Alejandro Fernandez » Como Quien Pierde una Estrella (Tab)

Como Quien Pierde una Estrella
Alejandro Fernandez

Letras, cifras e tablaturas para violão, guitarra, piano, ukulele e baixo

  • Em-D-C-B7
    
    Em
    Te Quiero
                         D
    Lo digo como un lamento
                               C
    como un quejido que el viento
                          B7
    se lleva por donde quiera
            Em
    Te Quiero
                          D
    que pena haberte perdido
                                 C
    como quien pierde una estrella
                          B7
    Que se le va al infinito
    
    Em-D-C-B7
    
  • LAm - SOL - FA - MI
    
    LAm
    Te Quiero
                         SOL
    Lo digo como un lamento
                               FA
    como un quejido que el viento
                          MI
    se lleva por donde quiera
    
    Te Quiero
    que pena haberte perdido
    como quien pierde una estrella
    Que se le va al infinot
    
    Aayyy.....
    LAm - SOL - FA - MI
    
    LAm                        SOL
    
  •    Am                 G
    1.-----0-------0-0-|----------------------------
    2.-1-3---3-1-3-----|--0-1-3-1-0-1-3-3-----------
    3.-2-------2-------|--0-------0------------------
    4.-2-------2-------|--0-------0------------------
    5.-0-------0-------|--2-------0-----------------
    6.-----------------|--3-------3----------------
    
       F                   E
    1.-------------------|-0------------
    2.---0-1-0---0-1-1-1-|-0--------------
    3.-2-------3---------|-1--------------
    4.-3-------2---------|-2--------------
    5.-------------------|-2-------------
    6.-------------------|-0--0-2-4--------
    
    
    
    bueno eso se repite 2 veces y entra la voz que son las mismas notas
    saludos y espero k les guste.
    
  • hola
    
    es solo el requinto de el principio
    
    E---------------------------------------------------------
    A---------------------------------------------------------
    D---------------------------------------------------------
    g---------------------------------------------------------
    b-10-10-13-10-10-10-13---8-10-12-10-8-10-12---------------
    e--8-12-12-12--8-12-12---7-8--10--8-7-8--10---------------
    
    E-------------------------------------------------------
    A-------------------------------------------------------
    D-------------------------------------------------------
    g-------------------------------------------------------
    b-6-8-10-8-6-8-10---5-7-9-7-5-7-9-10------10------------
    e-5-7-8--7-5-7-8----4-5-7-5-4-5-7----7-----8------------
                                             /----- se ripite
    
    
    el final es asi
    
    E---------------------------------5---------------------
    A---------------------------------7---------------------
    D---------------------------------7----------
  • D-------------------------------3-------3-----2-3---3-2-3-0
    G-2-4-5-4-2-4-5--0-1-3-1-0-1-3--2-0-2-0-2-0-2-1-2-0-2-1-2-0
    B-1-3-5-3-1-3-5--0-2-4-2-0-2-4----0-1-0---0-1-----0
    e----------------------------------------------
    
    D---2-3-0
    G---1-2-0
    B--------
    e--------
    
    (se repite)
    
    D-------------------------------3-------3-----2-3---3-2-3-0
    G-2-4-5-4-2-4-5--0-1-3-1-0-1-3--2-0-2-0-2-0-2-1-2-0-2-1-2-0
    B-1-3-5-3-1-3-5--0-2-4-2-0-2-4----0-1-0---0-1-----0
    e----------------------------------------------
    
    D---2-3-0
    G---1-2-0
    B--------
    e--------
    
    y comienza en Lam, sol, fa y mi7
    
    
    
    y recuerden:
    'la cagan perrillos'  y gacho, 
    si quieren una canción de
    quien sea (música grupera) 
    mandenme tres peticiones a 
    temerario_mayor@hotail.com
  • +
    ¡Colabora con nosotros!
    Envíanos tu versión de esta canción
  • Tutorial
    HD
    Como quien pierde una estrella - Alejandro Fernandez - Como tocar en guitarra acordes
    5:05
  • Tutorial
    HD
    Como Quien Pierde Una Estrella - Alejandro Fernandez - Tutorial - como tocar - guitarra,
    7:37

Letra de Como Quien Pierde una Estrella
Te Quiero
Lo digo como un lamento
como un quejido que el viento
se lleva por donde quiera
Te Quiero
que pena haberte perdido
como quien pierde una estrella
Que se le va al infinot
Aayyy.....
Quiero que se oiga mi llanto
como me dolio perderte
despues de quererla tanto
Ay despues de quererla tanto
diosito dame consuelo
para sacarme de adentro
esto que me esta matando
ay.........
Un saludo desde Canarias (STEVEN)




[Como Quien Pierde una Estrella acordes][Como Quien Pierde una Estrella chords]
© LaCuerda.net · notícia legal · privacidade · es · en · pt · contato
DINAMICO