Cifras para Violão e Guitarra » A »Alejandro Fernandez » Que lástima (Tab)

Que lástima
Alejandro Fernandez

Letras, cifras e tablaturas para violão, guitarra, piano, ukulele e baixo

  •          G                   Em7
    De un tiempo acá, no todo va muy bien
    C                       G
    Ya empiezan a faltarnos las palabras
                               Em7
    Nos falta que nos demos más amor
    Am            C       Am7       D
    Caricias con pasión, miradas largas
    
             G                   Em7
    De un tiempo acá, no todo va muy bien
    C                                G
    No creas que quiero hacer triste esta charla
     Bm7                          Em7
    Solo quiero evitar ser yo, después
                      Am7      D
    Quien tenga que decir ¡qué lástima!
    
    
    CORO
    
  •         G
    De un tiempo acá
          D9/F#        Em   Em/D
    no todo está muy bien,
    C                 D           G
    ya empiezan a faltarnos las palabras
         Bm7                      Em
    nos falta que nos demos más amor
         Em/D        Am
    caricias con pasión,
       C     D
    miradas largas
    
            G
    De un tiempo acá
          D9/F#      Em  Em/D
    no todo va muy bien
    C                      D
    no creas que quiero hacer
                  G
    
  •            F        Bb                 F  C
    e-----3/5--5----5---6-----6-----10--8--8---5/6-5---------
    B--1--1------------------------------------------6-------
    G----------5--5---5/7--7----7---10--9--9-----------------
    D--------------------------------------------------------
    A--------------------------------------------------------
    E----------1---------------------------------------------
    
             F          Gm7              F              Bbm7    D#
    e----3-3/5--5--3--5--5--6-6---10-10-10--8--8---5-6-6/8-9-6--8-9--6--
    B----------------------------------------------------------------8--
    G--5--------5--------5--7-7---10-10-10--9--9---------------------8--
    
    
            G#         D#/G           Fm
    De un tiempo acá, no todo va muy bien,
    C#                                 Cm7
    ya empiezan a faltarnos, las palabras,
          Cm7                     Fm
    nos falta que nos demos más amor,
    
  • 
    INTRO
    
    
    E-----2/6----6----6------7----7---------11----9-----9------5p6-5---2--
    B---3-----------------------------------------------------5--------3--
    G----------7----7---7/-8---8----8/--12--12---10----10--------------4--
    
    
    E-----2-3/-6----6-6-------7-7--8-7--7/--11--11-11---9--9--------------
    B---3-----------------------------------------------------------------
    G---------------7-7-7/-8--8-8--9-8--8/--12--12-12--10-10--------------
    
    E---5-6-7-9-5------6/----8/-9--5--------------------------------------
    B---5------------5-------------6--------------------------------------
    G---5--------------------------7--------------------------------------
    
    
    De un tiempo aca
    no todo va muy bien
    y empiezan a faltarnos las palabras
    nos falta que nos demos mas amor
    caricias con pasion
    miradas largas
    
    De un tiempo aca
    no todo va muy bien
    no creas que quiero hacer triste esta charla
    solo quiero evitar ser yo despues
    quien tenga que decir
    ¡que lastima!
    
    ¡Que lastima!
    s
  • +
    ¡Colabora con nosotros!
    Envíanos tu versión de esta canción

Letra de Que lástima
De un tiempo acá
no todo está muy bien,
ya empiezan a faltarnos las palabras
nos falta que nos demos más amor
caricias con pasión,
miradas largas
De un tiempo acá
no todo va muy bien
no creas que quiero hacer
triste esta charla,
ser yo después
quien tenga que decir
que lastima...
Que lástima, se nos murió el amor
que lastima, ya nada puedo hacer
hoy tengo que entender
que pude haber hecho más
y hoy no nos queda más...
Que lástima...
No todo va
como quieres lo se,
perdóname que insista con lo mismo,
pero es que entre tú y yo
hay un abismo,
creo que tu amor y el mío
no se llevan bien.
De un tiempo acá
no todo va muy bien
no creas que quiero hacer
triste esta charla,
ser yo después
quien tenga que decir
que lastima...
Que lástima...




[Que lástima acordes][Que lástima chords]
© LaCuerda.net · notícia legal · privacidade · es · en · pt · contato
DINAMICO