Cifras para Violão e Guitarra » A »Amen » Por amor (Tab)

Por amor
Amen

Letras, cifras e tablaturas para violão, guitarra, piano, ukulele e baixo

  • D*  = x577xx            C*  = x355xx            A+  = xx3221
    B7  = x24242 (también puede ser 'B')
    
    Intro: D* - C* - A...
    
    A      A       F#m                  B7
    Por amor nacimos, y muchas veces por amor morimos
          Bm           E-Eb-D       A   C#m
    sé que tu corazón no es para mi
    A      A   F#m                B7
    sin dormir, bebiendo whisky por ti
          Bm                 E-Eb-D           A
    y una triste expresión solo queda en mi.
    
    Pre-Coro
    C#m           F#m      Bm
    Y aunque ayer te vi, mentí al decir
                   E
    que en estos días no pensé en ti
    C#m      F#m         Dm
    
  • LA       DO#m      FA#m               SI              
    Por amor nacimos   y muchas veces por amor morimos
           RE         DO#m DOm    SIm     MI 
    se que tu corazón ya   no es para mi
    
    LA  DO#m    FA#m            SI              
    Sin dormir, bebiendo whisky por ti
         RE                DO#m DOm SIm        MI 
    y una triste expresión   solo   queda en mi
    
    Pre coro:
    DO#m        FA#m    SIm
    Y aunque ayer te vi menti al decir
                      RE          MI 
    que en estos dias no pense en ti
     DO#m FA#m        REm   
    y en mi alma solo queda un momento
         SOL 
    para seguir diciendo
    
    
  •    x   E             A         A              F#m                B7
    e|------------------------------------------------------------------|
    B|------------------2------------2----3/2------2----5-3-2-3-2-----4-|
    G|-x-7-7/9/7-5~---2---2-------2----2-------2----2------------4-2--2-|
    D|-x-7-7/9/7-5~--2-2----2-2/3---3------------3---2---------------4--|
    A|-x-7-7---7-5~-0---------------------------------4-------------2---|
    E|------------------------------------------------------------------|
           B7      ¿?        E D# D  A              A      E
    e|-------------------------------------------------------------x-12/~-|
    B|----4---------5--5/0-x-9-8-7-7/2--2-3-2/3/2--2-----9-9--9----x-12/~-|
    G|----2--------5-5-5/0-x-9-8-7-7/2------------2-2----9-9---9---x------|
    D|--4---------4----4/0-x-9-8-7-7/2-2---------2---2---9-9--------------|
    A|-2---0-2-3/5-----5/0-x-7-6-5-5/0-------------------7-7----7---------|
    E|------------------------------------------------2/7--------0--------|
            A                       F#m              B7                ¿?
    e|---------------------------------------------------------------------|
    B|------2------------2----3/2----2----5-3-2------4---4---------5---5/~-|
    G|---2----2-------2----2------2---2-2------4-2---2---2--------5-5--5/~-|
    D|--2-2-----2-2/3--3-----------3---3-----------4---4--------4------4/~-|
    A|-0---------------------------------4--------2---2--0-2-3/5-------5/~-|
    
  • +
    ¡Colabora con nosotros!
    Envíanos tu versión de esta canción
  • Tutorial
    HD
    Por amor - AMEN (Tutorial GT1)
    4:50
  • Tutorial
    HD
    Por amor - AMEN (Tutorial GT2)
    4:50

Letra de Por amor
Por amor nacimos y muchas veces por amor morimos
se que tu corazón ya no es para mi
Sin dormir, bebiendo whisky por ti
y una triste expresión solo queda en mi
Pre coro:
Y aunque ayer te vi menti al decir
que en estos dias no pense en ti
y en mi alma solo queda un momento
para seguir diciendo
Adios como duele perder tu mejor amor
adios sientate y no digas mas, por favor
Prendi un cigarrillo y llore tanto
como si fuera un niño
no te pude olvidar
no te puedo amar
y si voy andando por la vida
siempre con un trago a la deriva
sin encontrar a alguien
que me pueda ser olvidar
sin encontrar un fin y una salida
rep pre coro y coro2 veces
disfrutenlo se que lo estaban pidiendo




[Por amor acordes][Por amor chords]
© LaCuerda.net · notícia legal · privacidade · es · en · pt · contato
DINAMICO