Cifras para Violão e Guitarra » A »Amen » Te quiero (Tab)

Te quiero
Amen

Letras, cifras e tablaturas para violão, guitarra, piano, ukulele e baixo

  • ----------------------------------------------------------------------
    Intro : C E Am C7 F Fm G (x2)
    
     C                   E
    Cuando en las calles al caminar
    
     Am                    C7                F
    prendo un cigarro y me pongo a pensar en ti
    
              Fm   G
    oh solo en ti.
    
    
    
    C                E
    Siento tu risa y al despertar
    
     Am                      C7
    solo me doy cuenta que no era verdad
    
    
  • ------------------------
    
       C      E      Am     C7     F     Fm      G      G#   A7
    e|-0-| e|-0-| e|-0-| e|-0-| e|-1-| e|-1-| e|-3-| e|-4-| e|-0-|
    B|-1-| B|-0-| B|-1-| B|-1-| B|-1-| B|-1-| B|-3-| B|-4-| B|-2-|
    G|-0-| G|-1-| G|-2-| G|-3-| G|-2-| G|-1-| G|-0-| G|-5-| G|-0-|
    D|-2-| D|-2-| D|-2-| D|-2-| D|-3-| D|-2-| D|-0-| D|-6-| D|-2-|
    A|-3-| A|-2-| A|-0-| A|-3-| A|-3-| A|-2-| A|-2-| A|-6-| A|-0-|
    E|-0-| E|-0-| E|-X-| E|-0-| E|-1-| E|-1-| E|-3-| E|-4-| E|-X-|
    ==============================================================
    
    Riffs:
    -----
    
    Riff 1:                Riff 2:                     Riff 3:
    
    e|--12--11--10-8---|  e|--3br~~4br~~5br~~6br~~-|  e|-------|
    B|--12--11--10-8---|  B|--3br..4br..5br..6br..-|  B|-------|
    G|-----------------|  G|--x----x----x----x-----|  G|-------|
    D|-----------------|  D|-----------------------|  D|0h1-0h1| x5
    
  • ---------------
    
      DO     MI     LAm    DO7    FA     FAm    SOL    SOL#   LA7
    e|-0-| e|-0-| e|-0-| e|-0-| e|-1-| e|-1-| e|-3-| e|-4-| e|-0-|
    B|-1-| B|-0-| B|-1-| B|-1-| B|-1-| B|-1-| B|-3-| B|-4-| B|-2-|
    G|-0-| G|-1-| G|-2-| G|-3-| G|-2-| G|-1-| G|-0-| G|-5-| G|-0-|
    D|-2-| D|-2-| D|-2-| D|-2-| D|-3-| D|-2-| D|-0-| D|-6-| D|-2-|
    A|-3-| A|-2-| A|-0-| A|-3-| A|-3-| A|-2-| A|-2-| A|-6-| A|-0-|
    E|-0-| E|-0-| E|-X-| E|-0-| E|-1-| E|-1-| E|-3-| E|-4-| E|-X-|
    
    ==============================================================
    
    Riffs:
    -----
    
    Riff 1:                Riff 2:                     Riff 3:
    
    e|--12--11--10-8---|  e|--3br~~4br~~5br~~6br~~-|  e|-------|
    B|--12--11--10-8---|  B|--3br..4br..5br..6br..-|  B|-------|
    G|-----------------|  G|--x----x----x----x-----|  G|-------|
    
  •          C       E        Am         C7                 F      Fm      G
    e|-----------------------------------------5----------------------10^~~8--|
    B|--------------------------------8-7-6-7-8-8-7-6-7-8-6-5^~-------------8~|
    G|---5-7^-7^-5---5-7^-7-5-4---4-5--------------------------7^~5br~~-------|
    D|-6-----------6------------7---------------------------------------------|
    A|------------------------------------------------------------------------|
    E|------------------------------------------------------------------------|
    
       C                   E   Am                   C7
    e|-12--12--12-14^(14)-----12~-15-12~-15-12-15-12-10-13-10--
    B|---13--13------------------------------------------------
    G|-------------------12/13---------------------------------
    D|---------------------------------------------------------
    A|---------------------------------------------------------
    E|---------------------------------------------------------
    
        F                        Fm             G
    e|--13----------13----13---------13--------------|
    B|----13------13--13----13-----13--13------------|
    G|------14--14------14----14-13------13-12/13-12-|
    
  • 1|---0-0-0-0----               C  D  E  F  G   A  B 
    2|---5-4-3-1----               DO RE MI FA SOL LA SI
    3|---4-3-2-0----
    4|--------------
    5|--------------
    6|--------------
    
    riff 2
    
    1|---333-444-555-666--
    2|---333-444-555-666--
    3|--------------------
    4|--------------------
    5|---2----------------
    6|---3----------------
    
    y bueno yo les indicare donde van cada uno de esos arreglos y la cancion va asi:
    
    INTRO:
    
    
  • weno ezo es
    lo basiko ke uza
    en toda la cancion
    escuchala bn
    y te daras kuenta
    y tmbn tu ponle tu toke
    como bajista XD!
    
    
    intro / verso
    G----------------------------------------
    D----------567-7578-8753-3-333-334555----
    A--3-3567-7--------------------------5---
    E----------------------------------------
    
    coro
    G------------------------------------------------------
    D--3-356-6/10------------3-345-5--------5/10101010-5---
    A-------------3-320-00/7---------333333----------------
    E------------------------------------------------------
    
    
    cuando dice:anduve por las calles es azi
    G----------------------------------------------------
    D-----------567-777-7-------8-888-8753-333-334555----
    A--7-777-7-----------23-333----------------------5---
    E----------------------------------------------------
    
    
    
    ATENCION!q
    EN EL CORO ES 10 NO 1 Y 0
    NOZ VEMOZ
    EZO ES TOO
    ESTA VA MI BROHER
    ALONZO XD
    kualkiercoza
    a mi correo            max_2994@hot...
    atte: MAX del zur dl PERU!XD
  • Intro
    
    E-------------------------------------------------
    A--3-333---------------------------------------5--
    D-------2-222--7-777--8-875-8-7-5--3-3333--5-55---
    G-------------------------------------------------
    
    E---------------------------1-111---111---11------
    A--3-3----------------------------------------3---
    D-----012--2567--2875875-878-------3-----3----5---
    G-------------------------------------------------
    
    Verso
    
    E-------------------------------------------------
    A--3-3----------------------------------------5---
    D-----012--2567-7777-8-7h8-7--875--3-3333-5-555---
    G-------------------------------------------------
    
    E--------------------------------------------------
    A--3-3-----------------------------------------5---
    D-----012--2567-----------3333333333--5555555555---
    G---------------543-3333---------------------------
    
    Pre - coro
    
    E--1-1111--4-4444-----------------------------------------------------
    A------------------3-3333--0-0000--5-5555--10-10101010--333333333333--
    D-------
  • TE QUIERO AMÉN
    INTRO = Verso
    Cuando en las calles…
         Do/C     Mi/E        Lam/Am      Do7/C7   Fa/F
    G/1.|----------------------------------------------------
    D/2.|----------------------------------------------------
    A/3.|-3-3-3-3---7-7-7-7--------------3-3-3-3-------------
    E/4.|---------------------5-5-5-5--------------1-1-1-----
    
           Fam/Fm        Sol/G
    G/1. | ----------------------|
    D/2. |-----------------------|     (TODO 2 VECES)
    A/3. |-----------------------|
    E/4. |---1-1-----3-3-3-3-----|
    
    CORO
    Es que tienes…
          Fa   Sol#           Do     Lam
    G/1. | ------------------------------------------
    D/2. |-------------------------------------------
    A/3. |--------------------3-3-3-3----------------
    E/4. |-1-1-1-1--4-4-4-4--------------5-5-5-5-----
    
    
              Fa        Sol     Do Do7
    G/1. | ---------------------------------|
    D/2. |----------------------------------|(TODO 2 VECES)
    A/3. |---------------------3-3-3-3-3-3--|
    E/4. |---1-1-1-1--3-3-3-3---------------|
    
    
    Anduve por l
  • +
    ¡Colabora con nosotros!
    Envíanos tu versión de esta canción
  • Tutorial
    HD
    Te Quiero - AMÉN (tutorial)
    4:16

Letra de Te quiero
Cuando en las calles al caminar
prendo un cigarro y me pongo a pensar en ti
oh solo en ti.
Siento tu risa y al despertar
no se, no se si pueda aguantarlo o no
Es que tienes algo muy especial
tienes un encanto que me va a matar
eres como una rosa que no la puedo tocar
y solo quiero decirte una vez mas
que te quiero
que ya no se que hacer
que no me quiero pelar.
Anduve por las calles
en busca de tu amor
pero nunca te encontré
ohh no nunca te encontré ohh maldición
cuando al fin te pude besar
sentí que eras mi droga
y no quiero dejarte no
no te quiero dejar jamás
cuando te miro puedo soñar
con tocar el cielo y volar
como un superman, como un súper boy
Es que tienes algo muy especial
tienes un encanto que me va a matar
eres como una rosa que no la puedo tocar
y solo quiero decirte una vez mas
que te quiero
que ya no se que hacer
que no me quiero pelar.
y solo quiero decirte una vez mas
que te quiero
que ya no se que hacer
que no me quiero pelar y...
ya no c q hacer ...




[Te quiero acordes][Te quiero chords]
© LaCuerda.net · notícia legal · privacidade · es · en · pt · contato
DINAMICO