Cifras para Violão e Guitarra » A »Andrés Calamaro » Flaca (Tab)

Flaca
Andrés Calamaro

Letras, cifras e tablaturas para violão, guitarra, piano, ukulele e baixo

  • G              B7
    Flaca, no me claves
          Em               C
    tus puñales, por la espalda
          G               D
    tan profundo, no me duelen
                 G    D
    no me hacen mal.
    
    G              B7
    Lejos, en el centro
            Em          C
    de la tierra, las raíces
          G            D
    del amor, donde estaban
          G    D
    quedarán.
    
    G                        B7
    Entre no me olvides me dejé nuestros abriles
    
  • RE, SI LA SOL SI RE / RE#, SI LA SOL SI RE# /
    MI, SI LA SOL LA SI / RE, DO DO /
    RE, SI LA SOL LA SI / RE, SI LA / SOL]
    
    
    G        B7
    Flaca, no me claves
    Em            C
    tus pu~ales por la espalda,
             G          D7
    tan profundo, no me duelen,
            G       D7
    no me hacen mal.
    
    Lejos, en el centro
    de la tierra, las raices
    del amor donde estaban
    quedaran.
    
    G                B7
    
  • e-----------------------------------------------------------
    G-3--0---0-3-4--0---0-4-5--0-------0-3-1-1----0-3--0--------
    B-----2-0--------2-0--------2-0-2--------------------2-0-2--
    D-----------------------------------------------------------
    A-----------------------------------------------------------
    E-----------------------------------------------------------
    
    
    e-----------------------------------------------------------
    G-0-3---0---------------------------------------------------
    B----------2-0----------------------------------------------
    D-----------------------------------------------------------
    A-----------------------------------------------------------
    E-----------------------------------------------------------
    
    ESTRIBILLO:
    G              B7
    Flaca, no me claves
          Em               C
    tus puñales, por la espalda
    
  • Asi lo toca posta. Escunchenla y lo veran
    
    
    
    (Intro y en el medio de la cancion)
    e-----------------------------------------------------------
    G-3--0---0-3-4--0---0-4-5--0-------0-3-1-1----0-3--0--------
    B-----2-0--------2-0--------2-0-2--------------------2-0-2--
    D-----------------------------------------------------------
    A-----------------------------------------------------------
    E-----------------------------------------------------------
    
    
    e-----------------------------------------------------------
    G-0-3---0---------------------------------------------------
    B----------2-0----------------------------------------------
    D-----------------------------------------------------------
    A-----------------------------------------------------------
    E-----------------------------------------------------------
    
    Final:
    
    e-----------------------2-0-0--------------------3-
    G-----------------5-4-4--------0---0-3-1-1---0-3---
    B------0-2-5--4-4----------------2---------2-------
    D-0-2-4-------------
  • Estos son los solos de esta canción, 
    pueden haber variaciones ya que yo
    lo saqué con ayuda de un amigo.
    
    (Intro)
    e-----------------------------------------------------------
    G-3--0---0-3-4--0---0-4-5--0---0-3-3b1-1-0-3-0---0-3-3-0----
    B-----2-0--------2-0--------2-0---------------2-0-------2-0-
    D-----------------------------------------------------------
    A-----------------------------------------------------------
    E-----------------------------------------------------------
    
    (Final)
    e-----------------------------------------------------------
    G-3--0---0-3-4--0---0-4-5--0---0-3-3b1-1-0-3-0---0-3-3-0----
    B-----2-0--------2-0--------2-0---------------2-0-------2-0-
    D-----------------------------------------------------------
    A-----------------------------------------------------------
    E-----------------------------------------------------------
    
    e--------------------------------------------------
    G--------------5-4--7-5--0-3-1--0-0-4-5--0-3-4-----
    B------0-2-5--4-
  • >= acentuar nota
    
    intro
    |----------------|----------------|----------------|----------------|
    |5------5/7-5----|9---------------|----------------|----------------|
    |----------------|----------------|7-------------2-|3---------------|
    |----------------|--------7-------|----------------|----------------|
    
    |----------------|----------------|----------------|----------------|
    |----------------|----------------|----------------|----------------|
    |--------------2-|5-----------2---|----------------|5-5-5-5-5-5-5-5-|
    |3-----------3---|--------------5-|3---------------|----------------|
                                                        >   >   >   >
    
    Resto de la cancion
    |----------------|----------------|----------------|----------------|
    |----------------|----------------|----------------|----------------|
    |----------------|2-2-2-2-2-2-2-2-|7-7-7-7-7-7-7-7-|3-3-3-3-3-3-3-3-|
    |3-3-3-3-3-3-3-3-|----------------|----------------|----------------|
     >   >   >   >    >   >   >  
  • Aca les va el punteado de flaca para la armonica
    
    6 5 (4) 4 (4) 5 6 5 (4) 4 (4) (6) 5 (4) 4 (4) 5 6 (5) (5)
    
    (5) 6 5 (4) 4 (4) 5 6 5 (4) 4
    
    ===================================================
    Colaboracion de Ivan Vanioff
    (ivan_el_moncholero@hotmail.com)
    
    
    
    armonica en c
    aca mando el solo de saxo completo
    
    6, 5 (4) 4 (4) 5 6, 5 (4) 4 (4) 5 (6),
    5 (4) 4 (4) 5 6, (5) (5)
    5 6, 5 (4) 4 (4) 5 6, 5 (4) 4
    
    3 (3) 4 (4) 5 (5), 5 5, (6), (6)b (6)b,
    (7), (6) (6) 5 (4) 5 6, (5) (5)
    (4) 5 5 6 7, 5 (4) (4) 6 (7)
    5 (4) 4
    
    NOTA: la b es de bend
  • (solo armonia)
    
    
    
    intro   D B A G B D D#
            B A G B D# E
            B A G A B D C C B D B A G
    
    
    solo    D E F# G A C B E D#
            F# E B D C A B D E G
            B A D F# B A G
  • +
    ¡Colabora con nosotros!
    Envíanos tu versión de esta canción
  • Tutorial
    HD
    Como tocar Flaca de Andres Calamaro en Guitarra Acustica (HD)
    Tutorial
    4:55
  • Tutorial
    HD
    Cómo toca Flaca de Andrés Calamaro en la Guitarra
    3:36
  • Tutorial
    HD
    Como tocar guitarra FLACA ANDRES CALAMARO GUITARRA TUTORIAL FACIL criolla acústica
    5:45

Letra de Flaca
Flaca, no me claves
tus pu~ales por la espalda,
tan profundo, no me duelen,
no me hacen mal.
Lejos, en el centro
de la tierra, las raices
del amor donde estaban
quedaran.
Entre no me olvides me deje nuestros abriles
olvidados en el fondo del placard
del cuarto de invitados, eran tiempos dorados,
un pasado mejor.
(Aunque) casi me equivoco y te digo poco a poco
no me mientas, no me digas la verdad,
no te quedes callada, no levantes la voz,
ni me pidas perdon.
(Aunque) casi te confieso que tambien he sido un perro
compa~ero, un perro ideal
que aprendio a ladrar y a volver al hogar
para poder comer.
Flaca, no me claves
tus pu~ales por la espalda,
tan profundo, no me duelen,
no me hacen mal.
Lejos, en el centro
de la tierra, las raices
del amor donde estaban
quedaran.
[Notas fin:




[Flaca acordes][Flaca chords]
© LaCuerda.net · notícia legal · privacidade · es · en · pt · contato
DINAMICO