Cifras para Violão e Guitarra » A »Andrés Calamaro » Mil Horas (Tab)

Mil Horas
Andrés Calamaro

Letras, cifras e tablaturas para violão, guitarra, piano, ukulele e baixo

  • Intro: DOm - REm(5to espacio) - SOLm
    
          DOm     REm           SOLm
    Hace frío y estoy lejos de casa
          DOm              REm                SOLm
    hace tiempo que estoy sentado sobre esta piedra,
              DOm         REm            C7
    yo me pregunto, para que sirven las guerras...
               DOm             SOLm   DOm            SOLm
    tengo un cohete en el pantalón, y vos estas tan fría
             DOm             SOLm  DOm           SOLm
    como la nieve a mi alrededor, vos estas tan blanca
              D#                      REm
    que ya no se que hacer...
    
    SOLm                                        DOm
     La otra noche te espere bajo la lluvia dos horas
         REm            D#    REm
     mil horas, como un perro
    SOLm                                       DOm
    
  •   Cm7          Dm7          Gm7
    Hace Frío y estoy lejos de casa
            Gm7             Dm7                Gm7
    Hace tiempo que estoy sentado sobre esta piedra
           Ebmaj7            Dsus4          C7
    Yo me pregunto para que sirven las guerras
    
               C7
    Tengo un cohete en el pantalón y vos estas tan fría
             Gm7
    Como la nieve a mi alrededor vos estas tan blanca
         Ebmaj7
    que yo no sé que hacer
    
      Gm7                                      Cm7
    La otra noche te espere bajo la lluvia dos horas
      Dm7               Ebmaj7  Dm7
    Mil horas como un perro
    Gm7                                      Cm7
    y cuando llegaste me miraste y me dijiste loco
    
  • Am7        Bm7             Cmaj7
    Hace frío y estoy lejos de casa
    
    Am7             Bm7                       Cmaj7
    Hace tiempo que estoy sentado sobre esta piedra
    
                Am7     Bm7                  Cmaj7
    Yo me pregunto Para que sirven las guerras.
    
                 Am7           Cmaj7
    Tengo un cohete en el pantalón
    
        Am7              Cmaj7
    Y Vos estás tan fría
    
           Am7              Cmaj7
    como la nieve a mi alrededor
    
        Am7              Cmaj7
    Y Vos estás tan blanca,
    
  • TZV...
    
    EL BAJO INICIA EN EL MINUTO 0:15
    G----------------------------------------------|
    D-----------------------------3-------3--------|
    A-3-3-----3-3-----3-3-------5---5---5---5-6~---|
    E-----3-5-----3-5-----3-5-3-------3------------|
    
    0:32
    G------------------------------------------|
    D------------------------------------------|
    A------1-3-3---345-5---5-6-6-5-x(5)-x(1)---|
    E-3-33-------3-------5---------------------|
    
    G----------------------------------|
    D----------------------------------|
    A------1-3-3---345-5---5-6-6-5-5---|
    E-3-33-------3-------5-------------|
    
    0:51
    G----------------------------------------------|
    D----------------------------------------------|
    A-3-35-5------5-3-35-5------5-3-35-5-3-3-------|
    E-------3-3-6---------3-3-6--------------3-5---|
    
    1:06
    G----------------------------------------------|
    D-----------------------------3-------3--------|
    A-3-3-----3-3-----3-3-------5---5---5---5-6~---|
    E-----3-5-----3-5-----3-5-3-------3------------|
    
    1:19
    G-----------------
  • +
    ¡Colabora con nosotros!
    Envíanos tu versión de esta canción
  • Tutorial
    Acordes - Mil Horas - Andres Calamaro
    5:01
  • Tutorial
    HD
    Como tocar MIL HORAS en guitarra - Los Abuelos De La Nada [Tutorial Rockstars]
    4:33
  • Tutorial
    HD
    Mil Horas Andrés Calamaro Cómo Tocar En Guitarra
    6:43

Letra de Mil Horas
Hace Frío y estoy lejos de casa
Hace tiempo que estoy sentado sobre esta piedra
Yo me pregunto para que sirven las guerras
Tengo un cohete en el pantalón y vos estas tan fría
Como la nieve a mi alrededor vos estas tan blanca
que yo no sé que hacer
La otra noche te espere bajo la lluvia dos horas
Mil horas como un perro
y cuando llegaste me miraste y me dijiste loco
estas mojado ya no te quiero
y en el circo vos ya sos una estrella
una estrella roja que todos se la imaginan
si te preguntan
vos no me conocías no no
Tengo un cohete en el pantalon y vos estas tan fria
como la nieve a mi alrededor vos estas tan blanca
que yo no sé que hacer
La otra noche te espere bajo la lluvia dos horas
Mil horas como un perro
y cuando llegaste me miraste y me dijiste loco
estas mojado ya no te quiero [x2]




[Mil Horas acordes][Mil Horas chords]
© LaCuerda.net · notícia legal · privacidade · es · en · pt · contato
DINAMICO