Cifras para Violão e Guitarra » A »Aterciopelados » Baracaturana (Tab)

Baracaturana
Aterciopelados

Letras, cifras e tablaturas para violão, guitarra, piano, ukulele e baixo

  • MIm                 SI
    No llevo para mi casa
                      MIm
    Una mujer Baracunatana
                    SI
    por què puede pensar
                             MIm
    que estoy loco, loco, locolo
              SI
    anoche te vì
                          MIm
    habìa otro que te chequeaba
                SI
    montaste su moto
               
    te brindò chiclets
                MIm
    tambièn galleta
                   SI
    prendiò su motoneta
    
  • E---------------------------------
    B---------------------------------
    G---------------------------------
    D------------------------2-1-0----
    A-----2-------2------2---------4--
    E--0-3--0-0-3--0-0-3--------------
    
       Em                 B7                    Em
    A: No llevo para mi casa, una mujer Baracunatana
                         B7                           Em   
         porque pueden pensar, que estoy loco loco loco lo
                   B7                           Em
         Anoche te vi, habia otro que te chequeaba
                       B7                                Em
         montaste tu moto, te brindo chicle tambien galleta
                         B7
         prendio su motoneta y te marchaste con el mono
                                    Em
         de jean, el overol y la chaqueta.
             Am              Em
    
  • e|---------------------------------
    b|---------------------------------
    g|---------------------------------
    a|-----------2-------7-6-5-4~~~~~--
    E|--0---0-3------------------------
    
    
    
    Acompañamiento:
    
    Se repiten estas dos figuras:
    
    Fig. A
    e|---------------------------------
    b|---------------------------------
    g|---------------------------------
    a|-----------2----2-2--2-0---------
    E|--0---0-3-----------------3------
    
    Fig. B
    
  •    Am      Em     B 
    EI--5------7------7-7-7-7-7--7-7--I
    BI--5------8------7-7-7-7-7--8-8--I
    GI--5------9------8-8-8-8-8--9-9--I
    DI--7------9------9-9-9-9-9--9-9--I
    AI--7------7------9-9-9-9-9--7-7--I
    EI--5-------------7-7-7-7-7-------I
    
                                                      x2
    EI--------------------------------------------------I
    BI--------------------------------------------------I
    GI--------------------------------------------------I
    DI-----------------------------------------2-1-0----I
    AI---------22----------22----------22------------4--I
    EI--00--033-----00--033-----00--033-----00----------I
    
    
    Esta es la forma que yo toco la rola con mi banda, 
    es la tab mas completa, solo escuchen la rola 
    a la vez que leen la tablatura, es muy básica la canción. 
    
  • Este tab es casi perfecto.
    Cheqen los tiempos y acomoden sus variaciones.
    ¡Califiqen!
    
       Intro
    G |---------------------------------|
    D |---------------------------------|   x 2
    A |-----2--------------2------------|
    E |--0-3---------0-0-3--------------|
    
       Verso
    G |-------------------------|---------------------------------|
    D |-----------1-4-----1-4---|-----------------1-4-----1-4-----| x 3
    A |-----2---2-------2-------|-----2-----2---2-------2---------|
    E |--0-3--------------------|-0-3---0-3-----------------------|
    
    G |-----------------------|-|-----------|
    D |-----------------1-4---|-|-----------|
    A |-----2------2--2-----2-|-|-2-2-2-2---|
    E |--0-3---0-3------------|-|---------0-|
    
       Coro
    G |------------------------------------|----------------|
    D |-----2-------------1-4--------------|-----2----------|
    A |--0-3-------2----2----------2-------|--0-3-------2---|
    E |--------0-3-------------0-3---------|--------0-3-----|
    
    G |----------------|
    D |----------------|
    A |--2---2-2-------| x
  • Aca esta la cancion completita
    y correcta, en sus octavas exactas
    al menos en mi audio es asi
    Intro
    E|--0-3---|-0--0-3----|
    A|------2-|--------2--| x2
    D|--------|-----------|
    G|--------|-----------|
    
    No llevo
    E|-------|-------|-------|-------|-------|
    A|-------|-2-----|-2-----|-------|-------|
    D|-2-5-2-|---1-4-|---1-4-|-2-5---|-2-5---|
    G|-------|-------|-------|-----4-|-----4-|
    
    puede pensar
    E|--------|-------|-------|-------|
    A|--2-----|-2-----|-------|-------| x3
    D|----1-4-|---1-4-|-2-5---|-2-5---|
    G|--------|-------|-----4-|-----4-|
    
    motoneta
    E|----------|--------------|
    A|--2-----2-|-2-2-2-2------|
    D|----1-4---|---------2-2--|
    G|----------|--------------|
    
    Larala lala
    E|--------|-------|-------|-------|-------|--------|
    A|--0-3-0-|-------|-2-----|---3-2-|-0-3-0-|--------|
    D|--------|-2-5---|---1-4-|-2-----|-------|-2-5----|
    G|--------|-----4-|-------|-------|-------|-----4--|
    
    garucha
    E|----------|---------|---2-----|--------|
    A|--2--2-22-|-2-------|-2--2-22-|-2-2--2-|
    D|----4-----
  • +
    ¡Colabora con nosotros!
    Envíanos tu versión de esta canción

Letra de Baracaturana
No llevo para mi casa
Una mujer Baracunatana
por què puede pensar
que estoy loco, loco, locolo
anoche te vì
habìa otro que te chequeaba
montaste su moto

te brindò chiclets
tambièn galleta
prendiò su motoneta
y te marchaste con el mono
del Jean, el overall y la chaqueta.
por eso tu eres garulla ,retrechera,
aveja, bergaja, fulera, guaricha, baracunatana, cucharamì
baracunata, baracunatana
y con el mono de la moto
eran nueve, que tenìa
y le ponìan serenata
(Repetir introduciòn varias veces)
(intervenciòn del Acordeòn)
No llevo para mi casa......
Por eso eres garulla retrechera,
abeja, bergaja, fulera, guaricha
garosa, morronga, farisea, gorzobia,
baracunatana, cucharamì
baracunata.......




[Baracaturana acordes][Baracaturana chords]
© LaCuerda.net · notícia legal · privacidade · es · en · pt · contato
DINAMICO