Cifras para Violão e Guitarra » A »Aterciopelados » Bolero Falaz (Tab)

Bolero Falaz
Aterciopelados

Letras, cifras e tablaturas para violão, guitarra, piano, ukulele e baixo

  • E              F#m          G#m         Gm F#m
    Buscas en mis bolsillos pruebas de otro cariño
    E              F#m      G#m         Gm F#m
    Pelos en la solapa, esta sonrisa me delata
    E              F#m      G#m             Gm F#m
    Labial en la camisa, mi coartada está hecha trizas
    E              F#m        G#m        Gm F#m
    Estoy en evidencia, engañar tiene su ciencia.
    
    A               B
    Estoy hasta la coronilla,
    A                    B
    Tú no eres mi media costilla
    A               B
    Ni la octava maravilla.
    
    CORO X 2
    
    E           A                  B
    Malo si sí, malo si no, ni preguntes
    
  • E-F#m-G#m-Gm-F#m-E
    
    
    E    F#m 
    Buscas en mis bolsillos
    G#m Gm F#m E
    pruebas de otro cari~o
      F#m
    pelos en la solapa
    G#m Gm F#m E
    esta sonrisa me delata
      F#m
    labial en la camisa
    G#m Gm F#m E
    mi coartada esta hecha trizas
    F#m
    estoy en evidencia
      G#m  Gm F#m E
    enga~ar tiene su ciencia
    
    
  •        E          F#m            G#m            Gm
    E-------0---0---------2---2---------4---4----------3---
    B-------0---0---------2---2---------4---4----------3---
    G-------1---1---------2---2---------4---4----------4---
    D------------------------------------------------------
    A------------------------------------------------------
    E----0----------0--2----------2--4-----------4--3------
    
          F#         B                  G#m7                E
    E--------2---------2---2------------------------4-------0---
    B--------2---------4---4----------------4---4---4-------0---
    G--------3---------4---4----------------4---4---4-------1---
    D---------------------------------------4---4-----------2---
    A------------2------------2-------6---------------------2---
    E----2--------------------------------------------------0---
    
    
    E                F#m           G#m        F#m
    Buscas en mis bolsillos pruebas de otro cariño
    E          F#m             G#m       F#m
    
  •            E                 F#m    Abm        G#m            
    E-------0---- -----2---------4----------3----      
    B-------0---- -----2---------4----------3----      
    G-------1----------2---------4----------4----      
    D-------2----------4---------6----------5----      
    A-------2---- -----4---------6----------5----      
    E-------0---- ------2---------4----------3----
                                        
            F#           B                  B7         C#m
    E-----2----------2------------2----------4----
    B-----2----------4------------0----------5----
    G-----3----------4------------2----------6----
    D-----4----------4------------1----------6----
    A-----4----------2------------2----------4----
    E------2---------2------------0----------4----
    
          
                      INTRO:
    
          E               F#m            Abm            G#m      
    
  •    E       F#m       G#m     Gm     F#    B7   B7/G      E
    e|--0-0------2-2------4-4------3-----2---2-2-----3-3-3---0-|
    B|--0-0------2-2------4-4------3-----2---0-0-----0-0-0---0-|
    G|--1-1------2-2------4-4------3-----2---2-2-----2-2-2---1-|
    D|---------------------------------------------1---------2-|
    A|---------------------------------------2-2-------------2-|
    E|-0------0-2------2-4------4-3----2---------------------0-|
    
    
    E                F#m           G#m        F#m
    Buscas en mis bolsillos pruebas de otro cariño
    E          F#m             G#m       F#m
    pelos en la solapa esta sonrisa me delata
    E              F#m         G#m             F#m
    labial en la camisa mi cuartada está hecha trizas
    E         F#m          G#m           F#m
    estoy en evidencia engañar tiene su ciencia
    
    
    A               B
    
  •                                  Bolero Falaz
    
    ESPERO QUE LES GUSTE, AQUI LO SEPARE POR COMPASES PARA QUE 
    CHEQUEN EL ORDEN DE LA CANCION QUE ESTA COMPLETA. ESTA CANCION ESTA SUPER SENCILLA SUERTE.
    
    
    
    --------------------|----------------------|---------------------|
    --------------------|----------------------|---------------------|
    --------------------|----------------------|---------------------|
    -------2---4--------|---4---3---3---2------|--0---------0---2----|
    
    
    
    --------------------|----------------------|---------------------|
    --------------------|----------------------|---------------------|
    --------------------|----------------------|---------------------|
    -------2---4--------|---4---3---3---2------|--0---------0---2----|
    
    
    
    --------------------|----------------------|---------------------|
    --------------------|----------------------|---------------------|
    --------------------|----------------------|---------------------|
    -------2---4--------|---4---3---
  •                                  Bolero Falaz
    
    
    ESPERO QUE LES GUSTE, AQUI LO SEPARE POR COMPASES PARA QUE 
    CHEQUEN EL ORDEN DE LA CANCION QUE ESTA COMPLETA.
    
    
    --36-------------36---36------|
    --49---42---42---42---42---42-|
    ------------40----------------|
    ------------------------------|
    ------------------------------|
    ------------------------------|
    
    
    
    ---------36-----------------|---36---36------------------|
    ----42---42---42---42---42--|---42---42---42---42---42---|
    ----40------------------40--|------------------40--------|
    ----------------------------|----------------------------|
    ----------------------------|----------------------------|
    ----------------------------|----------------------------|
    
    
    
    --36-------------36---36------|---------36-----------------|
    --46---42---42---42---42---42-|----42---42---42---42---42--|
    --53--------40----------------|----40------------------40--|
    ------------------------------|----------------------------|
    ---------------
  • +
    ¡Colabora con nosotros!
    Envíanos tu versión de esta canción

Letra de Bolero Falaz
Buscas en mis bolsillos pruebas de otro cariño
Pelos en la solapa, esta sonrisa me delata
Labial en la camisa, mi coartada está hecha trizas
Estoy en evidencia, engañar tiene su ciencia.
Estoy hasta la coronilla,
Tú no eres mi media costilla
Ni la octava maravilla.
Malo si sí, malo si no, ni preguntes
Ya no soy yo, fuera de mi es que me tienes.
Que si vengo, que no voy
Que si estoy, que me pierdo.
Que si tengo, que no doy
Que si estoy, que me vengo.
(De aqui en adelante se repite lo mismo de arriba)
Lo siento en tus manos, tus caricias me han robado
Lo huelo en tu boca, esos besos ya son de otra
¿Quién será esa infame que no deja que yo te ame?
Si yo la encontrara le partiría esa cara.
Estoy hasta la coronilla,
Tú no eres mi media costilla
Ni la octava maravilla.
Malo si sí, malo si no, ni preguntes
Ya no soy yo, fuera de mi es que me tienes.
Que si vengo, que no voy
Que si estoy, que me pierdo.
Que si tengo, que no doy
Que si estoy, que me vengo.
Te dije no más y te cagaste de risa
Te dije no más y te cagaste de risa
Te dije no más y te cagaste de risa
Ja, ja , ja, ja
B7*: No sé como se llama esa nota pero es como un B7 con la
modificación del dedo 4 en la 1era cuerda en el 3er espacio.
en sus formas con cejillos, asi suenan mejor.




[Bolero Falaz acordes][Bolero Falaz chords]
© LaCuerda.net · notícia legal · privacidade · es · en · pt · contato
DINAMICO