Cifras para Violão e Guitarra » B »Los Bunkers » Angel para un final (Tab)

Angel para un final
Los Bunkers

Letras, cifras e tablaturas para violão, guitarra, piano, ukulele e baixo

  • FA#m-RE-LA-DO#m,RE,MI (VI Cuerda -0·2·4) X2
    
    FA#m
    Cuentan que cuando un silencio
    MI
    aparecía entre dos
    RE                LA
    era que pasaba un ángel
             DO#m
    que les robaba la voz.
    FA#m
    Y hubo tal silencio el día
    RE
    que nos tocaba olvidar
      LA             DO#m
    que de tal suerte yo todavía
    RE                MI(VI Cuerda -0·2·4)
    no terminé de callar.
    
    
    
  •                              ---INTRO---
    
      e|--2---5--4--2-------2--0-----------------------------------------|
      B|--2-----------3----------3----5p3-----5-----5-----5--------------|
      G|--2-------------------------------2------1-----2----4----1-2-4-6-|
      D|--4--------------------------------------------------------------|
      A|--4--------------------------------------------------------------|
      E|--2--------------------------------------------------------------|
    
    
      e|---9-7-5---5-5-2---------------------------------|
      B|--10-9-7---7-4-3--5p3----5-----5-----5-----------|
      G|---------------------2-----1-----2-----4--1-2----|
      D|----------------------------------------------4--|
      A|-------------------------------------------------|
      E|-------------------------------------------------|
    
    
                         ---INTERMEDIO---
    
    
  • Intro: F#m  D  A  DO#m D E
    
      FA#m           RE                 LA     DO#m    RE     MI
    e-------5--4--2-------2--0---------------------------------------
    B--7-------------3---------3----5h3-----5-----5-----5------------
    G-----------------------------------2------1-----2----4----1-2---
    D--------------------------------------------------------------4-
    A----------------------------------------------------------------
    E----------------------------------------------------------------
    Lo de la otra guitarra suenan las mismas notas, que la que empieza pero en
    
    otra octava.
    
    Cuentan que cuando un silencio... (Fa#m  Mi  Re  La  Do#m)
    
    Y hubo tal silencio...(Fa#m  Re  La  Do#m  Re  Mi)
    
    Todo empezó en la sorpresa... (Fa#m  Mi  Re  La  Do#m)
    
    Sin querer se hace una ofrenda...(Fa#m  Re  La  Do#m  Re  Mi)
    
  • +
    ¡Colabora con nosotros!
    Envíanos tu versión de esta canción

Letra de Angel para un final
Cuentan que cuando un silencio
aparecía entre dos
era que pasaba un ángel
que les robaba la voz.
Y hubo tal silencio el día
que nos tocaba olvidar
que de tal suerte yo todavía
no terminé de callar.
Todo empezó en la sorpresa
en un encuentro casual
pero la noche es traviesa
cuando se teje el azar
sin querer se hace una ofrenda
que pacta con el dolor
o pasa un ángel se hace leyenda
y se convierte en amor.
Ahora comprendo cual era el ángel
que entre nosotros pasó era el más terrible, el implacable
el más feroz.
Ahora comprendo en total
este silencio mortal
ángel que pasa besa y te abraza
ángel para un
final.
(guitarra)
Todo empezó en la sorpresa
en un encuentro casual
pero la noche es traviesa
cuando se teje el azar
sin querer se hace una ofrenda
que pacta con el dolor
o pasa un ángel se hace leyenda
y se convierte en amor.
Ahora comprendo cual era el ángel
que entre nosotros pasó era el más terrible, el implacable
el más feroz.
Ahora comprendo en total
este silencio mortal
ángel que pasa besa y te abraza
ángel para un
final.
Ladim :e2 b1 g2 d1 ax Ex
Preguntas o sugerencias Twitter: @rchavarriaarias




[Angel para un final acordes][Angel para un final chords]
© LaCuerda.net · notícia legal · privacidade · es · en · pt · contato
DINAMICO