Cifras para Violão e Guitarra » B »Los Bunkers » Ven aquí (Tab)

Ven aquí
Los Bunkers

Letras, cifras e tablaturas para violão, guitarra, piano, ukulele e baixo

  • Cuerda:1  2  3  4  5  6
    Rem:   5  6  7  7  5  5
    Solm:  10 11 12 12 10 10
    Do:    8  8  9  10 10 8
    
    
    |-----------------------------|
    |-----------------------------|
    |-----------------------------| (x2)
    |-----------------------------|
    |-5-5-5--7-8----4-4--5-7------|
    |-----------------------------|
    
    
    |------------------------------------------------------------|
    |------------------------------------------------------------|
    |------------------------------------------------------------|
    |------------------------------------------------------------|
    |--5-5--7-8---5-5--7-8-----3-3--5-7------3-3--5-7------------|
    |------------------------------------------------------------|
    
  • REm - SOLm - DO - REm - SOLm - DO
    
    (hay que tocar los acordes con cejilla, se escucha mejor)
    
    
    REm                                                         SOLm   DO
    Si no hay nadie a quien quieras hablar por esta noche llámame  (woh oh oh)
    REm                                            SOLm    DO
    no te quedes quieta ni un segundo tras mi puerta otra vez (wo oh oh)
    
    Coro:
    
    REm                               SOLm   DO                      REm
    Ven aquí, no sabes cuanto te espere por las noches que no me dormí
                               SOLm    DO                           REm
    no sabes que es morir después oh, de estar borracho y solo por ti
    
    
    nuevamente se repite el intro x2
    
    
  •   Dm              Dsus2            Dm              Dsus2
    E|5-------5-------5-------5-------|5-------5-------5-------5-------|
    B|6-------6-------5-------5-------|6-------6-------5-------5-------|
    G|7-------7-------7-------7-------|7-------7-------7-------7-------|
    D|7-------7-------7-------7-------|7-------7-------7-------7-------|
    A|5-------5-------5-------5-------|5-------5-------5-------5-------|
    
    Riff:
    
    A|5-5-5---7---8---4-4-4---5---7---|5-5-5---7---8---4-4-4---5---7---|
    
      Gm7             Gm7add13         Csus4           C
    E|3-------3-------3-------3-------|3-------3-------3-------3-------|
    B|6-------6-------5-------5-------|6-------6-------5-------5-------|
    G|3-------3-------3-------3-------|5-------5-------5-------5-------|
    D|3-------3-------3-------3-------|5-------5-------5-------5-------|
    A|5-------5-------5-------5-------|3-------3-------3-------3-------|
    
    Riff:
    A|5-5-5---7---8---5-5-5---7---8---|3-3-3---5---7---3-3-3---5---7---|
    
  • AQUI LES PONGO UNA VERSION CONFIABLE DE ESTA EXCELENTE ROLA
    ESTA COMPLETA YA TAMBIEN PONDRE EL TAB DEL BAJO..
    DISFRUTEN!!!!
    
    / slide
    x mute (especie de golpeteo sin que suene la nota)
    h hammer on
    p pull off
    > bend (estirar)
    < bend (desestirar sin perder la nota)
    
    
    Son 3 liras, pero con 2 suena bien
    
    Gtr 1
    |<----2-veces---->|
    
    e--5-x-5-x-5-x-5-x--3-x-3-x-3-x-3-x-3-x-3-x-3-x-3-x-|Todo esto
    B--6-x-6-x-5-x-5-x--6-x-6-x-5-x-5-x-6-x-6-x-5-x-5-x-|se repite
    G--7-x-7-x-7-x-7-x--3-x-3-x-3-x-3-x-5-x-5-x-5-x-5-x-|
    D--7-x-7-x-7-x-7-x--3-x-3-x-3-x-3-x-5-x-5-x-5-x-5-x-|
    A--5-x-5-x-5-x-5-x--5-x-5-x-5-x-5-x-3-x-3-x-3-x-3-x-|
    E-------------------3-x-3-x-3-x-3-x-----------------|
    
    Gtr 2
    |<---2-veces---------->|<2-veces->|<2-veces---|
    
    e----------------------|----------|-----------|Se repite todo
    B----------------------|----------|-----------|tambien
    G----------------------|----------|-----------|
    D----------------------|----------|-----------|
    A--------7-8----------7|-------7-8
  • AQUI LES PONGO UNA VERSION CONFIABLE DE ESTA EXCELENTE ROLA
    ESTA COMPLETA YA TAMBIEN PONDRE EL TAB DEL BAJO..
    DISFRUTEN!!!!
    
    / slide
    x mute (especie de golpeteo sin que suene la nota)
    h hammer on
    p pull off
    > bend (estirar)
    < bend (desestirar sin perder la nota)
    
    
    Son 3 liras, pero con 2 suena bien
    
    Gtr 1
    e------------------------------------------
    B------------------------------------------
    G------------------------------------------
    D------------------------------------------
    A--5--5--7--8--4--5--7--5--5--7--8--4--5--7
    E------------------------------------------
    
    e-----------------------------------------------------
    B-----------------------------------------------------
    G-----------------------------------------------------
    D-----------------------------------------------------
    A--5--5--7--8--5--7--8--------5--7-----5--7-----------
    E-----------------------8--8--------8-----------------
    
    |<----2-veces---->|
    Gtr 2
    |<---2-veces---------->|<2-veces->|<2-veces-
  • yujjju 2 º kolaboracion!!!
    
    
    esta parte es el verso!!!
    g----------------------------------------------------------
    d--------------------------------------------------5--5--5-
    a--5--5--5---------------5--5--5---------------5----------
    E------------5--5---5----------------5--5--5--------------
    
    g------------------------------
    d-------5-----------------------
    a--5--5---5--3--3--3/2----3/2-----
    E-------------------------------
    
    
    CORO
    
    g--------------------------------------------------
    d--------------------------------------------------
    a-5--5---5----------------5--5--5----------------
    E--------------5--5--5-----------------5---6-5------
    
    g--------------------------7---9---------
    d----5---7---8---12---10-----------5-----
    a------------------------5---7-----------
    E--3---5---6---10---8------------3-------   X2
    
    
    puente
    
    g----------------------
    d----------------------
    a----------------------3
    E-1------2-------3------ X2
    
    
    vale eso es todo
    wiiiiiii
    rock +roll = atte
    sebas
  • Intro
    
    G----------------------------------------------------------|
    D----------------------------------------------------------|
    A----------------------------------------------------------|
    E---10---10---10-8-5-5-5------5-8-10-10---10-8-5-5---------|
    
    G----------------------------------------------------------|
    D---------------------------------------10-----10---10-----|
    A----------------------------------------------------------|
    E---5/15-15-15-----15/10-10-10-13-10-8-8---8-8----8--------|
    
    G----------------------------------------------------------|
    D----------------------------------------------------------|
    A----------------------------------------------------------|
    E---10---10---10-8-5-5-5------5-8-10-10---10-8-5-5---------|
    
    
    G----------------------------------------------------------|
    D----------------------------------------------------------|
    A----------------------------------------------------------|
    E---5/15-15-15-----15/10-10-10-13-10-8-8---8---8-8--6-7-8--|
    
    Verso:
    
    Si n
  • +
    ¡Colabora con nosotros!
    Envíanos tu versión de esta canción
  • Tutorial
    HD
    Como tocar VEN AQUÍ en guitarra - Los Bunkers [Tutorial Somos Posers]
    8:11

Letra de Ven aquí
se repite la intro dos veces
Primer parrafo
Si no hay nadie a quien quieras hablar por esta noche llamame (woh oh oh)
no te quedes niun segundo tras mi puerta otra vez (wo oh oh)
Punteo que acompaña al coro X2
ven aqui, no sabes cuanto te espere las noches que no me dormi
no sabes que es morir despues de estar borracho y solo por ti
Despues del coro sigue el punteo del principio
segundo parrafo (se repiten los acordes del primero)
no hay muchas razones para hablar de lo que pueda suceder esta vez
se que te has cansado de planear siemrpe tu vida sin querer
se repite el punteo del coro anterior
ven aqui, no sabes cuanto te espere las noches que no me dormi
no sabes que es morir despues de haber vivido por ti alguna vez
y no saber que hacer antes del amanecer
y yo no se perder (eh eh eeehh)
despues viene el coro...
Bueno aca estan los acordes originales de esta cancion..
espero les guste...ta enterita..




[Ven aquí acordes][Ven aquí chords]
© LaCuerda.net · notícia legal · privacidade · es · en · pt · contato
DINAMICO