Cifras para Violão e Guitarra » B »Los Bunkers » Canción de lejos (Tab)

Canción de lejos
Los Bunkers

Letras, cifras e tablaturas para violão, guitarra, piano, ukulele e baixo

  •   DO             LA#
    A)las trampas se han abierto
    RE#                         DO
    sin saber que esperas hoy de mi
    LA#
    1400 pasos
    RE#             SOL          DO
    mas de los que alguna vez te vi
    
     LAm-MIm    SOL         DO
    B)si tu no puedes entender
    LAm-MIm SOL           LAm
    que yo ya no quiero volver
    LAm7   LAm7        RE
    ya no, no me esperaran
         FA         DO
    los obreros silban al pasar
              SOL
    bajo el umbral
              FAm
    
  • gozenlo...
    
    
      1er  coro
    
          -----------------|----------------|----------------------
          -----------------|----------------|----------------------
          -----------------|----------------|----------------------
          -----------2-----|----------------|--2-2-3-2-5-5-3-2-----
          ---3-3--5--------|---0-0-2-3------|----------------------
          -----------------|----------------|----------------------
    
    
          -----------------|----------------|------------------------
          -----------------|----------------|------------------------
          -----------------|----------------|------------------------
          -----------2-----|----------------|--2-2-3-2-5-2-6-2-------
          ---3-3--5--------|---0-0-2-3------|------------------------
          -----------------|----------------|------------------------
    
          ya no, no me esperaran...
    
    
    
    
           -----------------|------------------|-------------------------
           -----------------|------------------|---------------
  •                                                         
    G||---------------------------|--------------------------|
    D||*--------0--2--------0--2--|--------------------------|
    A||*--3--3--------3--3--------|--1--1--3--5--1--1--3--5--|
    E||---------------------------|--------------------------|
    
    
                                                            
    --------------------------|---------------------------||
    --1--1--3--5--1--1--3--5--|--------------------------*||
    --------------------------|--------0--2--------0--2--*||
    --------------------------|--3--3--------3--3---------||
    
    
        Aquí empieza                                              
    --------------------------|--------------------------|
    --------0--2--------0--2--|--------------------------|
    --3--3--------3--3--------|--1--1--3--5--1--1--3--5--|
    --------------------------|--------------------------|
    
    
                                                          
    --------------------------|--------------------------|
    
  • +
    ¡Colabora con nosotros!
    Envíanos tu versión de esta canción

Letra de Canción de lejos
A)las trampas se han abierto
sin saber que esperas hoy de mi
1400 pasos
mas de los que alguna vez te vi
B)si tu no puedes entender
que yo ya no quiero volver
ya no, no me esperaran
los obreros silban al pasar
bajo el umbral
de su soledad
A)mi amor esta borracho
disfrazado de payaso
papa se fue de casa
lagrimas en los regalos
B)si tu no puedes entender
que yo ya no quiero volver
ya no, no me esperaran
las sirenas suenan todos
tienen que callar
C)las sombras se van cayendo
sobre concepcion despierto
no esperes que los recuerdos
me hagan regresar una vez mas.....
A) si tu entiendes de una vez.....




[Canción de lejos acordes][Canción de lejos chords]
© LaCuerda.net · notícia legal · privacidade · es · en · pt · contato
DINAMICO