Cifras para Violão e Guitarra » B »Los Bunkers » Dime Quien (Tab)

Dime Quien
Los Bunkers

Letras, cifras e tablaturas para violão, guitarra, piano, ukulele e baixo

  • Intro:   D     Bm    X2
    
    
    F#m      Bm    F#m           Bm
        Dime quien,   quien ha estado aquí
    Em                    A
        Velandote los sueños en vez de mi
    F#m       Bm F#m        Bm
        Y por que   no quieres hablar
    Em                      A           A7
        Y escondes la mirada sin contestar
    
    
              Bm  A#              D          E
    Tu debes creer  que estamos a mano otra vez
                 G A
    Dejame entender... porque.
    
    
    D     Bm     X2
    
  • e-2-----2----2---2-----2-----2--------
     -3-----3-----3--3-----------3--------
     -2---2----2-----4---4----4----4------  X2
     -0-0-----0------4--4----4------------
    E-------------------------------------
    
    
    Dime quien....
    e------------------2----2-------------
     -2----2------2/3--3----3---3/2-------
     -2----2----2------4--4---4-----------
     -4--4----4--------4-4---4------------
     -4-4---------------------------------
    E-------------------------------------
    
    
    Quien ha estado aqui....
    e------------------2----2-------------
     -2----2------2/3--3----3---3/2-------
     -2----2----2------4--4---4-----------
    
  • +
    ¡Colabora con nosotros!
    Envíanos tu versión de esta canción

Letra de Dime Quien
Dime quien, quien ha estado aquí
Velandote los sueños en vez de mi
Y por que no quieres hablar
Y escondes la mirada sin contestar
Tu debes creer que estamos a mano otra vez
Dejame entender... porque.
Yo no sé quien te fue a decir
Lo que siempre quisiste oír de mi
Cuentame quien te fue a creer
Despues de todo sabes mentir muy bien
Tu debes saber que arrastro los sueños de ayer
Que clavaste bien... a mis pies.
Muchos Saludos.
WWW.LOSBUNKERS.CL
...modificado por camilop!




[Dime Quien acordes][Dime Quien chords]
© LaCuerda.net · notícia legal · privacidade · es · en · pt · contato
DINAMICO