Cifras para Violão e Guitarra » B »Los Bunkers » Y Volvere (Tab)

Y Volvere
Los Bunkers

Letras, cifras e tablaturas para violão, guitarra, piano, ukulele e baixo

  • Intro: Dm  G  C  F  Dm  E  Am  X2
    
    A)
            Dm        G
    Amor adiós, 
                C                F
    no se puede continuar
                Dm         E  
    ya la magia terminó, 
               Am
    ahora tengo que marchar
          Dm       G
    Será mejor 
               C             F
    seguir nuestra soledad
                Dm              E
    si hoy el cielo se cubrió
              Am                 A  
    quizás mañana brille el sol.
    
    
  • Version en VIVO
    
    
    
    0:51
    guitara
    e-------8-----------I
    B---10-----10-------I
    G--------------10---I
    D-------------------I
    A-------------------I
    E-------------------I
    
    0:54
    organo
    e------------8-7-8-7--I
    B-----8-10------------I
    G--10-----------------I
    D---------------------I
    A---------------------I
    E---------------------I
    
    0:58
    guitara
    e----------7----------------I
    B---8--10-----10--8---------I
    G--------------------7--9---I
    D---------------------------I
    A---------------------------I
    E---------------------------I
    
    1:01
    organo
    e---------7-5-7-5------I
    B----6-8---------------I
    G--9-------------------I
    D----------------------I
    A----------------------I
    E----------------------I
    
    1:04
    guitara
    e---------5--------------I
    B---6--8-----8--6--------I
    G------------------5--7--I
    D------------------------I
    A------------------------I
    E------------------------I
    
    1:07
    organo
    e------------------------I
    B---------10-9-10-9------I
    G--7-9-10----------------I
    D------------------------I
    A------------------------
  • Intro: Dm  G  C  F  Dm  E  Am  X2
    
    guitarra
    e-------8-----------I
    B---10-----10-------I
    G--------------10---I
    
    organo
    e------------8-7-8-7--I
    B-----8-10------------I
    G--10-----------------I
    
    guitarra
    e----------7----------------I
    B---8--10-----10--8---------I
    G--------------------7--9---I
    
    organo
    e---------7-5-7-5------I
    B----6-8---------------I
    
  • e|----8-------|-----7---------|----5--------|------------------|
    B|-10---10----|-8-10-10-8-----|-6-8-8-6-----|------------------|
    G|---------10-|-----------7-9-|---------5-7-|-9h10-9-7-5-7-7h9-|
    D|------------|---------------|-------------|------------------|
    A|------------|---------------|-------------|------------------|
    E|------------|---------------|-------------|------------------|
    
    e|----8-------|-----7---------|----5--------|-----------------|
    B|-10---10----|-8-10-10-8-----|-6-8-8-6-----|-----------------|
    G|---------10-|-----------7-9-|---------5-7-|-9h10-9-7-5-4----|
    D|------------|---------------|-------------|-------------5h7-|
    A|------------|---------------|-------------|-----------------|
    E|------------|---------------|-------------|-----------------|
    
    Amor adiós...
    e|-------8--7-8-7--7-|------7--5-7-5-5-|----------------------|
    B|-6-8-10--------10--|-5-6-8--------8--|-------10--9h10h9-7-9-|
    G|-------------------|-----------------|-7-9-10---------------|
    D|-------------------|-----------------|----------------------|
    A|-------------------|-----------------|----------------------|
    
  • E|-------8----------|
    B|---10-----10------|
    G|--------------10--|
    
    E|---------7------------|
    B|---8-10-----10-8------|
    G|-----------------7-9--|
    
    E|--------5------------|
    B|---6-8-----8-6-------|
    G|----------------5-7--|
    
    B|--5-6-5--------/5----|
    G|--------7-5-4--------|
    
    E|-------8----------|
    B|---10-----10------|
    G|--------------10--|
    
    E|---------7------------|
    
  • ADIOS AMOR ...............
    G|-----------------------------------------------7------9-7-------------
    D|---------3-5-3-5-5------------2-3-2-3-3------7---7--------9-7-5-7-----
    A|-5-3-5-5-----------5--3-1-3-3-----------3-55-------5-7----------------
    E|------------------------------------------------------------------55--
    
    Y VOLVERE...........
    
    G|-----------------------------------------------7------9-7-------------
    D|---------3-5-3-5-5------------2-3-2-3-3------7---7--------9-7-5-7-----
    A|-5-3-5-5-----------5--3-1-3-3-----------3-55-------5-7----------------
    E|------------------------------------------------------------------55--
    
    TODA LA CANCION SE REPITE
    SALUDOS A LA PANDILLA DEL 33
  • +
    ¡Colabora con nosotros!
    Envíanos tu versión de esta canción
  • Tutorial
    HD
    Y Volveré De Los Bunkers Cómo Tocar En Guitarra
    6:18

Letra de Y Volvere
Amor adiós,
no se puede continuar
ya la magia terminó,
ahora tengo que marchar
Será mejor
seguir nuestra soledad
si hoy el cielo se cubrió
quizás mañana brille el sol.
No sufras más
quizás mañana nuestro llanto quede atrás
y si me dices que tu amor me esperará
tendré la luz que mi sendero alumbrará.
Y volveré
como un ave que retorna a su nidal
verás que pronto volveré y me quedaré
con esa paz que siempre, siempre tú me das
que tú me das.
No sufras más...
Y volveré,
a tus brazos caeré.
Las estrellas brillarán,
nuestro amor renacerá.
*******************************************************
Bueno esta canción ya estaba anteriormente en el atame
con la tablatura y acordes, pero al tocar los acordes
no sonaba muy bien así que me decidí a sacrla yo mismo.
Ojalá les guste...
RKRDO.
*******************************************************




[Y Volvere acordes][Y Volvere chords]
© LaCuerda.net · notícia legal · privacidade · es · en · pt · contato
DINAMICO