Cifras para Violão e Guitarra » C »Caifanes » Antes de que nos olviden (Tab)

Antes de que nos olviden
Caifanes

Letras, cifras e tablaturas para violão, guitarra, piano, ukulele e baixo

  • A
    
    VERSO 1:
    A                   C#m    A7
    Antes de que nos olviden
                D     Dm
    haremos historia
                       A      F#m
    no andaremos de rodillas
    
    el alma no tiene la culpa
    
    VERSO 2:
    A                   C#m    A7
    Antes de que nos olviden
                   D    Dm
    rasgaremos paredes
                  A      F#m
    y buscaremos restos
    
    
  • D A D A C#m D F A D G A
    
    A                 Amaj7 A7
    Antes de que nos olviden
              D      Dm
    haremos historia
                       A
    no andaremos de rodillas
    F#m
    el alma no tiene la culpa.
    
    A                 Amaj7 A7
    Antes de que nos olviden
                  D    Dm
    rasgaremos paredes
                  A
    y buscaremos restos
    F#m
    no importa si fue nuestra vida.
    A  E   Bm          G     Em
    
  • A                  LA +7  LA7           D
       Antes de que nos olviden,    haremos historia, 
    Dm                    A       F#sus       
       No andaremos de rodillas,    el alma no tiene la culpa.
    
    
    A                   LA +7  LA7              D
       Antes de que nos olviden,    rasgaremos paredes,
    Dm               A     F#sus       
       Y buscaremos restos;   no importa si fue nuestra vida.
    
    CORO: A E Bm G Em
     
    A                     LA +7  LA7                 D
       Antes de que nos olviden,    nos evaporaremos en magueyes, 
    Dm                        A   F#sus       
       Y subiremos hasta el cielo,    y bajaremos con la lluvia.
    
    A              LA +7  LA7           D
       Antes de que nos olviden,   romperemos jaulas,
    
  • G---------------------------------------------------------
    D-7-7-7-7-7-5----7-7-7-7-9-11--7-7-7-7-7-5---7-7-7-7-9-11-
    A--------------9----------------------------9-------------
    E---------------------------------------------------------
    Guitarra 2:
    A
    e------------------------1-1--------------------------------------
    B--3-2-2-2---3-3-2-2-2---2-2-3-3-3-2-2-0-0---0-0-2-2-2-3-3-3-2-2--
    G--2-2-2-2---2-2-2-2-2---2-2-2-2-2-2-2-2-2---2-2-2-2-2-2-2-2-2-2--
    D--2-2-2-2---2-2-2-2-2---2-2-2-2-2-2-2-2-2---2-2-2-2-2-2-2-2-2-2--
    A--0-0-0-0---0-0-0-0-0---0-0-0-0-0-0-0-0-0---0-0-0-0-0-0-0-0-0-0--
    
    Guitarra 1: Hace un rasgueo rápido en las notas correspondientes, 
    la segunda guitarra acompaña la canción con ritmo y arpegio según la nota.
    
    A-7-7-7-7-7-7-7-7-7-7-7-7-7-7-7-7-7-7-7-7-7-7-7-7-7-7-7-7-7-7-7-- Con Palm Mute de fondo.
    E-5-5-5-5-5-5-5-5-5-5-5-5-5-5-5-5-5-5-5-5-5-5-5-5-5-5-5-5-5-5-5--
    
    A                 Amaj7 A7
    Antes de que nos olviden
    
  • A-7-7-7-7-7-7-7-7-
    E-5-5-5-5-5-5-5-5-
        Esto se toca todo el intro
     
    Riff1
    A
    D-7-7-7-7--5-----7-7-7-7-9-11-
    A---------------9-----------------
        Esto se toca unas 8 veces o mas escucha la rola
    
    Riff2
    A
    e--0--0-0-0--0-0--0
    B--3--2-2-2--3-3--2
    G--2--2-2-2--2-2--2
    D--2--2-2-2--2-2--2
    A--0--0-0-0--0-0--0
          Esto se toca unas cuantas veces escucha la rola
    A                                     
     Antes de que nos olviden haremos
    
  • Antes de que nos Olviden - Caifanes
    Albúm: Vol. 2 (El diablito)
    
    INICIO (00:16)  (figura 1)
    
           (A)
    G|-------------||
    D|-------------||
    A|--0--0-00-0--||   Se repite hasta  00:56
    E|-------------||
    
    
    “El alma no tiene...” (Figura 2)
        (F#)
    G|------2--2------||
    D|--2h4-----4--4--|| (X2)
    G|----------------||
    D|----------------||
    
    Se repite Figura 1 hasta 1:28
    Se repite 2 veces Figura 2 “No importa si fue nuestra...”
    Al final se puede adornar para entrar al coro con:
        (F#)
    G|-----------|
    D|--2h4-2----|
    G|-------4~--|
    D|-----------|
    
    Figura 3 (Coro):
            (A)             (A)                (E)            (E)
    G|--------------|-------------------|--------------|--------------|
    D|--------------|-------------------|--------------|--------------|
    A|--0--2--4--0--|--0--2--4--0-0-2-0-|--------------|--------------|
    E|--------------|-------------------|--0--2--4--0--|--0--2--4--0--|
            (B)            (B)                (E)            (E)
    G|--------------|-------------------|--
  • +
    ¡Colabora con nosotros!
    Envíanos tu versión de esta canción

Letra de Antes de que nos olviden
Antes de que nos olviden
haremos historia
no andaremos de rodillas
el alma no tiene la culpa.
Antes de que nos olviden
rasgaremos paredes
y buscaremos restos
no importa si fue nuestra vida.
Oh ooh ooooh ooooh uuooh oh.
Antes de que nos olviden
nos evaporaremos en magueyes
y subiremos hasta el cielo
y bajaremos con la lluvia.
Antes de que nos olviden
romperemos jaulas
y gritaremos la fuga
no hay que condenar al alma.
Oh ooh ooooh ooooh uuooh oh.
Aunque tu me olvides
te pondré un altar de veladoras
y en cada una pondré tu nombre
y cuidaré de tu alma (Amén).
Cualquier queja, sugerencia o correción escribanme.




[Antes de que nos olviden acordes][Antes de que nos olviden chords]
© LaCuerda.net · notícia legal · privacidade · es · en · pt · contato
DINAMICO