Cifras para Violão e Guitarra » C »Caifanes » la Negra Tomasa (Tab)

la Negra Tomasa
Caifanes

Letras, cifras e tablaturas para violão, guitarra, piano, ukulele e baixo

  • Dm
    
    VERSO 1:
       Dm                               A
    Estoy tan enamorado de la negra Tomasa,
                                        Dm
    Que cuando se va de casa, triste me pongo.
                                       A
    Estoy tan enamorado de la negra Tomasa,
                                 Dm
    Que cuando se va de casa, triste me pongo.
    
    Dm
    
    VERSO 2:
     Dm                                A
    Estoy tan enamorado de mi negra preciosa
                                        Dm
    Que cuando se va de casa triste me pongo.
                                       A
    
  •    Am                              E7
    Estoy tan enamorado de la negra Tomasa,
                                       Am
    Que cuando se va de casa, triste me pongo.
                                       E7
    Estoy tan enamorado de la negra Tomasa,
                                        Am
    Que cuando se va de casa triste me pongo.
    
                                       E7 
    Estoy tan enamorado de mi negra preciosa
                                        Am
    Que cuando se va de casa triste me pongo.
                                       E7 
    Estoy tan enamorado de mi negra preciosa
                                       Am 
    Que cuando se va de casa triste me pongo.
      A    F   E7
    -Ay! -Ay! -Ay!
    
    
  • e|--------------------------|
    B|----6-----6------6-----6--|
    G|-7-----7------9-----9-----|
    D|--------------------------|
    A|--------------------------|
    E|--------------------------|
    
    
    e|-------------------------------------------------------------------|
    B|---6---6---6---6----6---6---6---6---6---6---6---6------------------|
    G|-7---7---9---9----7---7---9---9---7---7---9---9-----6---6---6---6--|
    D|--------------------------------------------------7---7---9---9----|
    A|-------------------------------------------------------------------|
    E|-------------------------------------------------------------------|
      ESTOY    TAN    ENAMORADO    DE    LA    NEGRA   TOMASA
    e|------------------------------------------------------------------|
    B|---------------------------------------------------6---6---6---6--|
    G|---6---6---6---6---6---6---6---6---6---6---6---6-7---7---9---9----|
    D|-7---7---9---9---7---7---9---9---7---7---9---9--------------------|
    A|------------------------------------------------------------------|
    
  • Creo que este es mejor, el otro esta bien, pero le faltan
    algunas cosas que creo que si son importantes, espero que le
    entiendan, si escuchan la rola sabran que si se escucha mas o
    menos.
    
    pues el intro y los versos de la cancion ya están,
    y si suena chido el que está,
    solo en la parte que sigue van algunos arreglos, son estos:
    
    esa negra linda
    e ------------------------|
    b ---------------11-10v---|
    
    que me tiene loco
    e ----------------------------------|
    b ---------------10-13-10-13-11-10v-|
    
    y que me come
    e ------------------------|
    b ---------------11-10v---|
    
    poquito a poco
    e ----------------------------------|
    b ---------------10-13-10-13-11-10v-|
    
    se repite lo mismo excepto en las 2 ultimas partes:
    
    esa negra linda
    que me tiene loco
    y que me come
    e -----------------------------|
    b ---------------11-10v-11-10v-|
    
    poquito a poco
    e ----------------------------------|
    b ---------------10-13-10-13-11v----|
    
    el solo va mas o menos asi:
    
    e -----5-10/12--10-----|------------------|----
  • Este es la tercera ves que subo esta cancion , 
    es el requinto , que ya habia prometido , pero
    por razones desconocidas , nunca fue subida , ahora
    a ver si es chicle y pega , 
    ahi va
    
    e -----5-8/12-10----|-----------------|---------------|
    b ---6-----------10-|-8-10-11-10-8-10-|-8-6-5-6-8-6-5-|
    g -7----------------|-----------------|---------------|
    d ------------------|-----------------|---------------|
    a ------------------|-----------------|---------------|
    e ------------------|-----------------|---------------|
    
    e -------5-------|-------------------|--------7/12-10-|
    b -5-6-8---8-6-8-|-8-8-6-6-5-8-6-5-3-|----------------|
    g ---------------|-------------------|-7-9-10---------|
    d ---------------|-------------------|----------------|
    a ---------------|-------------------|----------------|
    e ---------------|-------------------|----------------|
    
    e --------7/12-10-|--------7/12-10-|-------9-10-9------|
    b ----------------|----------------|-10-12--------12-10|
    g -7-9
  • Esta cancion esta chala
    antiguita pero chala
    E|-----|
    A|--5--|
    D|-----|
    G|-----|
    
    E|--------|-------|
    A|--5-8---|-5-0-3-|x3
    D|------7-|-------|
    G|--------|-------|
    
    E|--------|------------|
    A|--5-8---|-5-------8--|
    D|------7-|---7h9-7----|
    G|--------|------------|
    
    Estoy tan enamorado de la negra tomasa
    E|----|-------|-------|-------|------|
    A|--5-|-0-3-5-|-0-3-5-|-5-3-0-|-4-7--|
    D|----|-------|-------|-------|------|
    G|----|-------|-------|-------|------|
    
    que cuando se va de casa triste me pongo
    E|--5-|-----5-|-5-----5-|-------|------|
    A|----|-4-7---|--4-74---|-4-7-5-|-0-3--|
    D|----|-------|---------|-------|------|
    G|----|-------|---------|-------|------|
    
    Estoy tan enamorado la negra tomasa
    E|----|-------|-------|-------|------|
    A|--5-|-0-3-5-|-0-3-5-|-5-3-0-|-4-7--|
    D|----|-------|-------|-------|------|
    G|----|-------|-------|-------|------|
    
    Que cuando se va de casa triste me pongo
    E|--5-|-----5-|-----5-|-------|------|
    A|----|-4-7---|-4-7---|-4-7-5-|-0-3--|
    D|----|-------|-----
  • E|-----|-------------------|   |-----------------------|
    A|--5--|--5--------5--0-3-5|   |--5--------5--------8-5|
    D|-----|-----3--7----------| X3|-----3--7-----7h8-7----|
    G|-----|-------------------|   |-----------------------|
    
    E|--------------|----5------5------5-5-----5------|
    A|-0-3-5--0-3-5-|5-3---4-7----4-7-----4-7----4-7-5|
    D|--------------|---------------------------------|
    G|--------------|---------------------------------|
    
    E|------|       |---|5-----|
    A|-0-3-5|       |5-3|--4-7-|
    D|------| X3    |---|------| X3
    G|------|       |---|------|
    
    |5---------------------------------------------------|
    |--4-7-5--5-0-3-5--0-3-5---5---3-5--5--0-3-5--5---3-5|
    |----------------------------3------------------3----|
    |----------------------------------------------------|
    
    
    E|---------------------5--5------5-----5-5------5------|
    A|-0-3-5--5-0-3-5--5-3------4-7----4-7-----4-7----4-7-5|
    D|-----------------------------------------------------|
    G|-----------------------------------------------
  • Intro
    C |----------------|----------------|----------------|------X-------X-|
    T1|----------------|----------------|----------------|---------doo----|
    T2|----------------|----------------|----------------|---oo-------oo--|
    S |----------------|----------------|---------------d|oo----o-------o-|
       1 + 2 + 3 + 4 +  1 + 2 + 3 + 4 +  1 + 2 + 3 + 4 +  1 + 2 + 3 + 4 +
    
    C |----------------|----------------|----------------|--------------X-|
    H |x-X-x-X-x-X-x-X-|x-X-x-X-x-X-x-X-|x-X-x-X-x-X-x-X-|x-X-x-X-x-------|
    T1|----------------|----------------|----------------|---------doo----|
    T2|----------------|----------------|----------------|------------oo--|
    S |----------------|----------------|----------------|--------------o-|
    B |o---o---o---o---|o---o---o---o---|o---o---o---o---|o---o---o-------|
       1 + 2 + 3 + 4 +  1 + 2 + 3 + 4 +  1 + 2 + 3 + 4 +  1 + 2 + 3 + 4 +
    
    1er Verso
    s |----------------|----------------|----------------|--------------x-|
    H |x-X-x-X-x-X-x-X-|x-X-x-X-x-X-x
  • Este es el solo de teclado corregido, ustedes califiquen,
    el otro esta bien hasta cierto punto,
    pero llega una nota en que ya no le encuentro forma,
    traten de hacerlo asi haber si les gusta....
    
    
    Re Fa La Mi
    Re La La# La La# La La# La
    Sol Fa Mi Fa Sol Fa Mi
    Mi Fa Sol La Sol Fa Sol Mi Sol Mi Sol Fa Fa Mi Re
    Mi Fa Sol Mi Sol Fa (El segundo Mi se hace mas agudo)
    Mi Fa Sol Mi Sol Fa
    Mi Fa Sol Mi Sol Mi Sol Mi Sol La(Nota)
    La La# Do Do# Do La# La(Estas 7 se hacen rapido)
    La(Nota 12 vces)
    Rem(Nota 1 vez)
    Mi Fa Sol
    
    Ay! Ay! Ay!
    Do  La# La (Estas 3 intenten hacerlo lo mas agudas posible)
    La La La (Nota)
    Esa negra linda que me tiene loco....
    
    
    Ese es el solo, para el acompañamiento pueden buscar en acordes,
    esta en Rem y La, esta viejita la rola,
    pero sta bien fregona...
    
    algun solo de teclado que no encuentren solo contactenme y me hare
    un espacio para complacerlos,
    
    sale karnales, suerte con la rola, y tengan paciencia,
    por que si esta larguito el solo y tienes que tener paciencia para sacar
  • +
    ¡Colabora con nosotros!
    Envíanos tu versión de esta canción
  • Tutorial
    La Negra Tomasa - Tutorial para Guitarra
    18:22

Letra de la Negra Tomasa
VERSO 1:
Estoy tan enamorado de la negra Tomasa,
Que cuando se va de casa, triste me pongo.
Estoy tan enamorado de la negra Tomasa,
Que cuando se va de casa, triste me pongo.
VERSO 2:
Estoy tan enamorado de mi negra preciosa
Que cuando se va de casa triste me pongo.
Estoy tan enamorado de mi negra preciosa
Que cuando se va de casa triste me pongo.
Ay! Ay! Ay!
Esa negra linda que me tiene loco,
Que me come poquito a poco.
Esa negra linda que me tiene loco,
Que me come poquito a poco.
VERSO 3:
Estoy tan enamorado de la negra Tomasa,
Que cuando se va de casa, triste me pongo.
Estoy tan enamorado de la negra preciosa,
Que cuando se va de casa, triste me pongo.
Ay! Ay! Ay!
Esa negra linda que me tiene loco,
Que me come poquito a poco.
Esa negra linda que me tiene loco,
Que me come poquito a poco.
La-ra-ra, la-ra-ra,
la-ra-ra, la-ra-ra.
Mi negra linda nunca me dejes.
La-ra-ra, la-ra-ra,
la-ra-ra, la-ra-ra.
Mi negra linda nunca me dejes.
VERSO 3:
Estoy tan enamorado de la negra Tomasa,
Que cuando se va de casa, triste me pongo.
Estoy tan enamorado de la negra preciosa,
Que cuando se va de casa, triste me pongo.
Ay! Ay! Ay!
Esa negra linda que me tiene loco,
Que me come poquito a poco.
Esa negra linda que me tiene loco,
Que me come poquito a poco.
La-ra-ra, la-ra-ra,
la-ra-ra, la-ra-ra.
mi negra linda nunca me dejes.
La-ra-ra, la-ra-ra,
la-ra-ra, la-ra-ra.
mi negra linda nunca me dejes.
ALMITA TE AMO... RECUÉRDALO...




[la Negra Tomasa acordes][la Negra Tomasa chords]
© LaCuerda.net · notícia legal · privacidade · es · en · pt · contato
DINAMICO