Cifras para Violão e Guitarra » C »Caifanes » No Dejes Que (Tab)

No Dejes Que
Caifanes

Letras, cifras e tablaturas para violão, guitarra, piano, ukulele e baixo

  • (gtr 1) acust    D           G       A                     D
    (gtr 2) elect  E ---------------------------------------------
                   B -7--7^5-----8------------------7--5--7--5----
                   G ---------7-----7-7--6--4-------------------7-
                   D --------------------------7--7---------------
                   A ---------------------------------------------
                   E ---------------------------------------------
                           
    (gtr 1) acust            G    A                     D
    (gtr 2) elect  E ------------5---7---9---9-7-5---14-12-10--(10)-
                   B -7^5-----8-------------------------------------
                   G ------7----------------------------------------
                   D -----------------------------------------------
                   A -----------------------------------------------
                   E -----------------------------------------------
    
    
    D      G    A
    Cuando veo a traves del vaso
    D   G          A
    
  •                            (D)                    (G)
    E-----------10-------------------------10----12/14---14--14--14--12--10-10--|
    B--------------10-------------------10----10--------------------------------|
    G--9/11--11--------9/11--9------9/11----------------------------------------|
    D---------------------------12----------------------------------------------|
    A---------------------------------------------------------------------------|
    E---------------------------------------------------------------------------|
     (A)                                (D)         (G)        (A)
    E---/9--9--9----7-7-7---5-5-5---3--2-0---2-2-0-2-2----2-2-------------------|
    B--/10-10-10----8-8-8---7-7-7---5--3-5---3-3-5-3-3----3-3--5-5-5-----2-0----|
    G----------------------------------------------------------6-6-6--/2-----2--|
    D---------------------------------------------------------------------------|
    A---------------------------------------------------------------------------|
    E---------------------------------------------------------------------------|
                            (F#)         (G)              (A)
    E---------------------------------------------------------------------------|
    B---2-0h2p0----2-2h3-2----------5-5----------12-12-12-/14-14-14--12-12-12---|
    G-----------2----------2------------6-7--/12-12-12-12-/14-14-14--12-12-12---|
    D------------------------4---7----------------------------------------------|
    A---------------------------------------------------------------------------|
    
  • E|---------------------------------------------
    B|---------------------------------------------
    G|-9/11-11-9---12~---------------11/9-9/11-9---
    D|----------12----11-12-11-9-7-7------------12-
    A|---------------------------------------------
    E|---------------------------------------------
    
    E|---------------------------14-12-10/10--|
    B|--------------10-12-12/10---------------|
    G|-9/11/9--12~12-----------12-------------|
    D|-----  12-------------------------------|
    A|----------------------------------------|
    E|----------------------------------------|
    
    
    
    D                  G       A
      Cuando veo a través del vaso
    D          G         A
      veo a través del tiempo
    
  • E|------------------------------------------------------------------14------
    B|-5/7-7-5---8-------------7/5-5/7--5----7/5--8---10--12--14-14-12----15-15-
    G|---------7---6-7-6------------------7------7---------------------14-------
    D|-------------------9-7-7--------------------------------------------------
    A|--------------------------------------------------------------------------
    E|--------------------------------------------------------------------------
    
    
    
    D                  G       A
      Cuando veo a traves del vaso,
    D          G         A
      Veo a traves del tiempo;
    F#m             G           A
      Donde los sentidos se dislocan,
    F#m            G            A
      Donde los temores se evaporan.
    
    
    D               G        A
    
  • F=Full 1 tono
    b= bending 1/2 tono
    /= slide
    
    INTRO
              |
             \|/ Hasta aqui se puede tocar como dice abajo **
    e|---------------------------------------
    b|--5F3--7b--------------7-5--7-7-5/3----
    g|------------7-7-6----------------------
    d|------------------9-7--7---------------
    a|---------------------------------------
    e|---------------------------------------
    
    e|-----------------------------------------------------
    b|--5F3--7b---10-10--12-12--14-14-------17---15--15----
    g|--------------------------------16-14----------------
    d|-----------------------------------------------------
    a|-----------------------------------------------------
    e|-----------------------------------------------------
    
  • Danny danny_ledzeppelin@hotmail.com  saludos a la viejas de la secu y
    la prepa del salto
    
    
    5-No dejes que  danny intro
    --------------------------------------------------------------------------
    --5/7-7p5---7/8---------------5/7-7/5---7/8-8/10-10/12-12/14------15br-14b
    ----------7-----6-b6(7)---------------7--------------------14br-12--------
    ------------------------9-7-7---------------------------------------------
    --------------------------------------------------------------------------
    --------------------------------------------------------------------------
    Diego intro
    -----2-------3--------------------
    ----3-------3----2-2-2-2-3-2-0-2—-x2
    ---2-------0-----2-2-2-2-2-2-2-2--
    --0-------0------2-2-2-2----------
    ---------2-------0-0-0-0----------
    --------3-------------------------
    Verso 1y 2  Danny
    --2-tr-----3-tr--0--tr----
    --3-tr-----3-tr--2--tr----
    --2-tr-----0-tr--2--tr----x2
    --0-tr-----0-tr-----------
    --------------------------
    --------------------------
    
    Verso 1 y 2 diego
    --2-2
  • Esta rola se la quiero dedicar a la chava  que me ha hecho sufrir
     mas pero que me ha inspirado a seguir en la musica.
    En fin aquí les mando la tab de  no dejes que por lo regular
     solo se utiliza en versos y coros, notas de  un  medio de
     tiempo o medio tiempo.
    esta algo difícil por los tiempos péro es cuestion de que la escuches.
     No te preocupes es de las rolas que me han salido casi exactas
    
    No dejes que
    
    INTRO
    La guitarra hace siete compases y esto va después del tarolazo
    G||----------|
    D||----7-----|
    A||----------|
    E||---5-5----|
    
    Verso 1
    aquí entran todos los instrumentos
    G||----------|----------|----------|----------||
    D||----------|----------|-----2---2|------2---|| X 2 veces
    A||5---5-----|------5---|----------|----------||
    E||-----5---5|3---3----3|5---5-----|5---5---5-||
    
    G||----------|----------|----------|----------||
    D||----------|----------|-----2---2|------2---||  X 2 veces
    A||-----4----|-----5----|----------|----------||
    E||2---2----2|3---3----5|5---5-----|5---5---
  • Intro
    G //-------------------------------------------------------//
    D //---9-----11--------12------7---------------------------//
    A //-----------------------12------------------------------//
    E //-------------------------------------------------------//
       Después de la batería
    G //--------------------//
    D //----------7---------//
    A //--------------------//
    E //--------5---5-------//
    
    Verso1
    G //-----------------------------------------//
    D //-----------------------------------------// x 2
    A //-5-5-----------5-------------------------//
    E //-----5-5---3-3----3-5-5-0-555-0-5--------//
    
    Donde los sentidos se dislocan
    G //--------------------------------------//
    D //--------------------------------------//
    A //-----4-------5------------------------//
    E //-2-2---2-3-3---3-5-5-0-555-0-5--------//
    
    Donde los temores se evaporan         y aprovecho…
    G //-------------------------------------------------------//
    D //-------------------------------------------------------//
    A //-----4-------5
  • así empieza esta rola:
    
    ------------------------------------------------------------------------14-12-10-10-
    -5/7--7/5--7/8------------7-5-7-5/3--5/7/5-8--8/10--10/12--12/14-14-12--------------
    --------------6-7-6-3-2-2-----------------7---------------------------14------------
    ------------------------------------------------------------------------------------
    ------------------------------------------------------------------------------------
    ------------------------------------------------------------------------------------
    
    y esto es el solo, difrutenlo:
    
    e-----10------------10--12/14---14-14-14-12-10-10-10--9--9--9-7-7-7-5-5-5-3-2-3/5-5-5------
    b-------10--------10--10-----------------------------10-10-10-9-9-9-7-7-7-5-3-5/7-7-7-5-7-7
    g-9/11----11-9--11-------------------------------------------------------------------------
    d-------------12---------------------------------------------------------------------------
    
    e---------------------------------------------7
  • +
    ¡Colabora con nosotros!
    Envíanos tu versión de esta canción
  • Tutorial
    HD
    NO DEJES QUE - Caifanes: SOLO tutorial guitarra TAB
    1:03
  • Tutorial
    HD
    Como tocar NO DEJES QUE en guitarra - Caifanes [Tutorial Rockstars]
    13:53

Letra de No Dejes Que
Cuando veo a traves del vaso
veo a traves del tiempo
donde los sentidos se dislocan
donde los temores se evaporan
Yo aprovecho para desdoblarme
para salir del vaso
Con las paredes sudo tu rastro
Con la memoria sigo tu rostro
Y no se porque
no me importa saber porque
No dejes que
nos coma el diablo amor
que se trague tu calor
que eructe en mi dolor
No dejes que
nos coma el diablo amor
que se trague tu calor
que eructe en mi dolor
(mismos acordes)
Cuando veo a traves del humo
me voy volando y tu eres mi guia
entre los mundos nos haremos viejos
donde algun dia estaremos tranquilos
Y no se porque...




[No Dejes Que acordes][No Dejes Que chords]
© LaCuerda.net · notícia legal · privacidade · es · en · pt · contato
DINAMICO