Cifras para Violão e Guitarra » C »Canciones Populares » Cumpleaños Feliz (Tab)

Cumpleaños Feliz
Canciones Populares

Letras, cifras e tablaturas para violão, guitarra, piano, ukulele e baixo

  •         G        D7
    Cum-ple-a-ños fe-liz,
            D7       G
    cum-ple-a-ños fe-liz,             Ritmo: 3/4 Vals
           G       C
    te de-se-a-mos to-dos               P  M  M
            G     D7 G
    cum-ple-a-ños fe-liz.               |  |  |
                                        |  |  |
                                        |  |  |
          G        D7                   V  V  V
    Zo-ri-o-nak zu-ri,                  1  2  3
          D7       G
    zo-ri-o-nak zu-ri                  P = Pulgar
          G         C                  M = Mano
    Zo-ri-o-nak ___-___-___
          G     D7 G
    zo-ri-o-nak zu-ri.
    
    
    
  • Cumpleaños
                                                                               
    E||-----------------|-------1----0----|-----------------|-------3----1----|
    B||--1----1----3----|--1--------------|--1----1----3----|--1--------------|
    G||-----------------|-----------------|-----------------|-----------------|
    D||-----------------|-----------------|-----------------|-----------------|
    A||-----------------|-----------------|-----------------|-----------------|
    E||-----------------|-----------------|-----------------|-----------------|
    
    
                                                                           
    ------------8----|--5----1----1----|--0-------------|--6----6----5----|
    --1----1---------|-----------------|-------3--------|-----------------|
    -----------------|-----------------|----------------|-----------------|
    -----------------|-----------------|----------------|-----------------|
    -----------------|-----------------|----------------|-----------------|
    ------
  • E||---------------------------0---------------5-2---------3-3-2---0---|
    B||-----0-----3-2-------0-------3------------------3-2-0--------3---3-|
    G||-2-2---2---------2-2---2-----------2-2-----------------------------|
    D||-------------------------------------------------------------------|
    A||-------------------------------------------------------------------|
    E||-------------------------------------------------------------------|
    //
    
    
    SOL         RE
    Cumpleaños Felìz
    RE         SOL
    Cumpleaños Felìz
       SOL         DO
    Cumpleaños "Fulanito"
    SOL      RE  SOL
    Cumpleaños Felìz
    
    
    
    
  •      G                        G                 D7
                   Cum- ple-      am   ños  fe-     liz,     cum- ple-
         Q    Q    E    E         Q    Q    Q       H        E    E
    E||----------------------||------------------|---------------------|
    B||----------------------||------------------|---------------------|
    G||----------------------||*------------0----|---------------------|
    D||------------0----0----||*--2----0---------|--4--------0----0----|
    A||----------------------||------------------|---------------------|
    E||----------------------||------------------|---------------------|
    
    
      D7                G                G                C         Cm
      am   ños  fe-     liz,  to- dos    te   de-  se-    am   mos  cum- ple-
      Q    Q    Q       H     E   E      Q    Q    Q      Q    Q    E    E
    -----------------|----------------|----------------|----------------------|
    -----------------|----------------|--3----0--------|------------1----1----|
    ------------2----|--0-------------|------------0---|----------------------|
    --2----0---------|--------0---0---|----------------|--4----2--------------|
    -----------------|----------------|----------------|----------------------|
    -----------------|----------------|----------------|----------------------|
    
  • bueenass..yo estaba buscando las notas del cumpleaños feliz pero
    no me cerraba mucho..asi que las saque yo y para mi quedo mejor..
    es para armonica en Do(C)
    ()= aspirado
    sin ()= soplado
    
    
    4 4 (4)4 4(5)
    
    4 4 (4)4(4)(6)(5)
    
    4 4 6 5 4 4 (4)(3)
    
    (5)(5) 5 4(4) 4
    
    listo..ami me sono bastante bien..es facil espero que sirva..
    un abrazo y vamo los piojos va vamo los piojooos
    
    ()/
    
    amimentehacenvolar
  • +
    ¡Colabora con nosotros!
    Envíanos tu versión de esta canción

Letra de Cumpleaños Feliz
Cum-ple-a-ños fe-liz,
cum-ple-a-ños fe-liz, Ritmo: 3/4 Vals
te de-se-a-mos to-dos P M M
cum-ple-a-ños fe-liz. | | |
| | |
| | |
Zo-ri-o-nak zu-ri, 1 2 3
zo-ri-o-nak zu-ri P = Pulgar
Zo-ri-o-nak ___-___-___
zo-ri-o-nak zu-ri.




[Cumpleaños Feliz acordes][Cumpleaños Feliz chords]
© LaCuerda.net · notícia legal · privacidade · es · en · pt · contato
DINAMICO