Cifras para Violão e Guitarra » C »Canciones Populares » Las Mañanitas (Tab)

Las Mañanitas
Canciones Populares

Letras, cifras e tablaturas para violão, guitarra, piano, ukulele e baixo

  • A               _  E
    ESTAS SON LAS MANANITAS
            A            D
    QUE CANTABA EL REY DAVID
             A
    HOY POR SER DIA DE TU SANTO
               E      A
    TE LAS CANTAMOS A TI
    
        E                A
    DESPIERTA MI BIEN DESPIERTA
    E7                A
    MIRA QUE YA AMANECIO
            D          A
    YA LOS PAJARILLOS CANTAN
            E7       A
    LA LUNA YA SE METIO
    
     A                  _
    QUE LINDA ESTA LA MANANA
    
  • G|-------------------------------------------|
    
    e|5-3-2-2-0-2-2-3-5-5-5-5-7-5-3-5-3-2|
    B|7-5-3-3-2-3-3-5-7-7-7-7-9-7-5-7-5-3|
    G|-----------------------------------|
    
    Letra:
        D
    Que linda esta la mañana
                       A7
    En que vengo a saludarte
    
    Venimos todos con gusto
                     D
    Y placer a felicitarte
    
    D
    El día en que tu naciste
                        A7
    Nacieron todas las flores
    
  • G               _  D7
    ESTAS SON LAS MANANITAS
            G7            C
    QUE CANTABA EL REY DAVID
             G
    HOY POR SER DIA DE TU SANTO
               D7      G
    TE LAS CANTAMOS A TI
    
        D7                G
    DESPIERTA MI BIEN DESPIERTA
    D7                G
    MIRA QUE YA AMANECIO
            C          G
    YA LOS PAJARILLOS CANTAN
            D7       G
    LA LUNA YA SE METIO
    
     G                  _
    QUE LINDA ESTA LA MANANA
    
  • G
     Qué linda está la mañana
                            D7
     en que vengo a saludarte.
    
     Venimos todos con gusto
                          G
     y placer a felicitarte.
    
    G
     El día en que tú naciste,
                             D7
     nacieron todas las flores.
    
     Y en la pila del bautizo
                           G
     cantaron los ruiseñores.
    
    D7
     Ya viene amaneciendo
    
  • AQUI ESTA LA ROLA PARA QUE NO SE LES COMPLIQUE ES MAS O MENOS IGUAL
    A LA OTRA SOLO SE DIFERENCIA EN QUE EN LA PARTE DONDE DICE QUE LINDA
    ESTA LA MAÑANA... SE TOCA EN 5 TRASTE COMO SI FUERA 0 (AL AIRE)Y ASI
    SUCESIVAMENTE 5=0 7=2 8=3
    
    SI SE FIJAN EN ESA PARTE SUENA MAS SUAVE POR LO QUE ES MEJOR Y SI LO
    TOCAN DE LA FORMA (0,2,3) COMO QUE SE PIERDE LA SECUENCIA Y YA
    NO SUENA BIEN
    
    1--------------0------0-2-----0-2-3----3-3-2
    2-----3---3-2-3---2-3-------3---------------
    3-2-2---------------------------------------
    4-------------------------------------------
    5-------------------------------------------
    6-------------------------------------------
    
    1----0-----0-------0-2-3-0------------
    2------3-2---3-2-3---------3----------
    3-------------------------------------
    4-------------------------------------
    5-------------------------------------
    6-------------------------------------
    
    1-2-0-----0-2---2-0------0-2-------3--
    2----3-2-3---3-----3-2-3-------3-3----
    3----------------------------------
  • E|---------------------------------0--------0-1-----1-1--0------------------|
    A|---------1----1-0-1--3----0-1-3-------1-3-------------------3-1-0--3------|
    D|----0-0---------------------------------------0-0-------------------------|
    G|--------------------------------------------------------------------------|
    B|---------3--3--------------------3--3------------------3--3---------------|
    e|---------------------3--3------------------------------------------3------|
    
    E|-------------0-1------|
    A|----1-0-1-3------3-1--|
    D|----------------------|
    G|---------------0------|
    B|-------------3-----3--|
    e|----3------------3----|
    
    E|---------------------------------0--------0-1-----1-1--0------------------|
    A|---------1----1-0-1--3----0-1-3-------1-3-------------------3-1-0--3------|
    D|----0-0---------------------------------------0-0-------------------------|
    G|--------------------------------------------------------------------------|
    B|---------3--3--------------------3--3------------------3--3---------------|
    e|---------------------3--3------------------------------------------3------|
    
  • Bueno pues aqui les dejo este pequeño arreglo
    de esta cancion tan conocida espero les
    agrade saludos...
    
    o.Obimbiux..!!
    
    e--------------0------0-2-----0-2-3----3-3-2
    b-----3---3-2-3---2-3-------3---------------
    g-2-2---------------------------------------
    d-------------------------------------------
    a-------------------------------------------
    e-------------------------------------------
    
    e----0-----0-------0-2-3-0------------
    b------3-2---3-2-3---------3----------
    g-------------------------------------
    d-------------------------------------
    a-------------------------------------
    e-------------------------------------
    
    
    
    e-2-0-----0-2---2-0------0-2-------3--
    b----3-2-3---3-----3-2-3-------3-3----
    g-------------------------------------
    d-------------------------------------
    a-------------------------------------
    e-------------------------------------
    
    
    a---3-5-3-2-------0-2-3-0-------------
    b----------3-2-3---------3------------
    g-------------------------------------
    d----------------
  • +
    ¡Colabora con nosotros!
    Envíanos tu versión de esta canción
  • Tutorial
    HD
    Como aprender a tocar LAS MAÑANITAS Guitarra
    2:56
  • Tutorial
    Las Mañanitas Tapatías - Tutorial (PDF)
    3:32
  • Tutorial
    HD
    Las Mañanitas
    2:09

Letra de Las Mañanitas
ESTAS SON LAS MANANITAS
QUE CANTABA EL REY DAVID
HOY POR SER DIA DE TU SANTO
TE LAS CANTAMOS A TI
DESPIERTA MI BIEN DESPIERTA
MIRA QUE YA AMANECIO
YA LOS PAJARILLOS CANTAN
LA LUNA YA SE METIO
QUE LINDA ESTA LA MANANA
EN QUE VENGO A SALUDARTE
VENIMOS TODOS CON GUSTO
Y PLACER A FELICITARTE
EL DIA EN QUE TU NACISTE
NACIERON TODAS LAS FLORES
Y EN LA PILA DEL BAUTISMO
CANTARON LOS RUISENORES
YA VIENE AMANECIENDO
YA LA LUZ DEL DÍA NOS DIO
LEVANTATE DE MANANA
MIRA QUE YA AMANECIÓ




[Las Mañanitas acordes][Las Mañanitas chords]
© LaCuerda.net · notícia legal · privacidade · es · en · pt · contato
DINAMICO