Cifras para Violão e Guitarra » C »El Canto del Loco » Llueve en mí (Tab)

Llueve en mí
El Canto del Loco

Letras, cifras e tablaturas para violão, guitarra, piano, ukulele e baixo

  • FA#   2-2-3-4-4-2
    DO#   4-6-6-6-4-4
    DO#*  9-9-10-11-11-9
    RE#m  6-7-8-8-6-6
    SI    7-7-8-9-9-7
    SI4   7-7-9-9-9-7
    
    
    
    
    FA#   DO#   RE#m  DO#  SI  SI4  DO#*
    
    
          FA#
    Y el mundo alrededor
          DO#
    y no puedo soñar
             RE#m
    y es que hoy estoy triste,
            DO#
    
  •     LA                   MI                      FA#m
    El mundo alrededor y no puedo soñar y es que hoy estoy triste
    
            MI                          RE       SIm           MI 
    y solo pienso en llorar,sino tengo calor,ni cariño junto a mi
    
          LA                    MI                  FA#m
    solo pienso en buscar una estrella mejor que me pueda guiar
    
          MI                   RE             SIm           MI 
    que alivie este dolor,que lleve lejos,aun mas lejos de aqui
    
    ESTRIBILLO
    
             LA      MI         FA#m            MI             RE
    Y ahora solo necesito tu presencia,que me ausenta y no me duele
    
               SIm         MI                    LA     MI 
    y hoy te visto,y hoy parece que no llueve y solo necesito
    
    
  •   D/F#*:   F*:
    E 0        0
    B 3        1
    G 2        2
    D 0        3
    A 0        3
    E 2        x
    
    
    
    
    Intro:
    G     D/F#*    Em7   D  C   F*  D  Dsus D
    
    
    
          G
    Y el mundo alrededor
          D/F#*
    y no puedo soñar
    
  •         F#
    Y el mundo alrededor
          C#
    y no puedo soñar
              D#m
    y es que hoy estoy triste,
           A#m
    sólo pienso en llorar
           B
    si no tengo calor
         Bm           C#
    ni cariño junto a mí.
            F#
    sólo pienso en buscar
            C#
    una estrella mejor
            D#m
    que me pueda guiar
            A#m
    que alivie este dolor
    
  •       SOL                        SIm                        MIm                      
    D#||--3--------3--------3-----|--2--------2--------2-----|--0--------0--------0-----|
    A#||--3--3--------3--------3--|--3--3--------3--------3--|--0--0--------0--------0--|
    F#||--0-----0--------0--------|--4-----4--------4--------|--0-----0--------0--------|
    C#||--------------------------|--------------------------|--------------------------|
    G#||--------------------------|--2-----------------------|--------------------------|
    D#||--3-----------------------|--------------------------|--0-----------------------|
    
    
      SOL                        DO                         FA                       
    --------------------------|--------------------0-----|--1--------1--------1-----|
    --3--------3--------3-----|--1--------1-----------1--|--1--1--------1--------1--|
    --0--0--------0--------0--|--0--0--------0-----------|--2-----2--------2--------|
    --------0--------0--------|--------2--------2--------|--------------------------|
    --------------------------|--3-----------------------|--3-----------------------|
    --3-----------------------|--------------------------|--1-----------------------|
    
    
      RE                        REsus4                                                      
    --------0--------2--------|--3--------2----||
    
  • +
    ¡Colabora con nosotros!
    Envíanos tu versión de esta canción

Letra de Llueve en mí
Y el mundo alrededor
y no puedo soñar
y es que hoy estoy triste,
sólo pienso en llorar
si no tengo calor
ni cariño junto a mí.
sólo pienso en buscar
una estrella mejor
que me pueda guiar
que alivie este dolor
que me lleve lejos
aún más lejos de aquí.
Estribillo:
Y ahora sólo necesito tu presencia
que me ausenta y ME ENGRANDECE
y hoy te he visto
y hoy parece que no llueve...
y sólo necesito que alguien crea en mí
que me ayude a regalar el arte, llueve
y si apareces hoy no llueve en mí
hoy no llueve en mí,
si apareces hoy no llueve en mí
Mi ilusión no pasó
y me he dado cuenta
de que no te tengo
y siento TU ausencia
y es que he dado tanto
por estar junto a tí.
Trato de convencerte
con mi alma a cuestas
no me canso de darte
algo que a mí me llena
mi regalo es éste
ábrelo y disfruta
Estribillo:
Y ahora sólo necesito tu presencia
que me ausenta y ME ENGRANDECE
y hoy te he visto
y hoy parece que no llueve...
y sólo necesito que alguien crea en mí
que me ayude a regalar el arte, llueve
y si apareces hoy no llueve en mí
hoy no llueve en mí,
hoy no llueve en mí,
el arte llueve y hoy no llueve en mí




[Llueve en mí acordes][Llueve en mí chords]
© LaCuerda.net · notícia legal · privacidade · es · en · pt · contato
DINAMICO