Cifras para Violão e Guitarra » C »El Canto del Loco » Una foto en blanco y negro (Tab)

Una foto en blanco y negro
El Canto del Loco

Letras, cifras e tablaturas para violão, guitarra, piano, ukulele e baixo

  • C        G       Am
    Solamente oír tu voz
          F                 C
    Ver tu foto en blanco y negro
         G         Am
    Recorrer esa ciudad
          F            C
    Yo ya me muero de amor
    
    
         G           Am
    Ver la vida sin reloj
         F             C
    Y contarte mis secretos
         G             Am
    No saber si ya besarte
         F             Dm
    O esperar que salga solo
    
    
    
  • F (dos golpes)
    
    C                Dm
    Solamente oír tu voz
                            Em
    ver tu foto en blanco y negro
                    F
    recorrer esa ciudad
                        C
    yo ya me muero de amor
                       Dm
    Ver la vida sin reloj
                      Em
    y contarte mis secretos
                      F
    no saber ya si besarte
    
    o esperar que salga solo
    
    
    
  • D ecdl:
    
    ACORDES:> RE MIm FA#m MIm SOL SIm
    
    RE:                     MIm:                    FA#m(2ªcejill):
    e-----------------      -----------------       ----------------------
    B-----------------      -----------------       ----------------------
    G------7-----7---7      ------7-----7---7       ----------------------
    D--7-7-7-7-7-7-7-7      --9-9-9-9-9-9-9-9       ------11------11----11
    A--5-5-5-5-5-5-5-5      --7-7-7-7-7-7-7-7       --9-9--9--9-9--9--9--9
    E-----------------      -----------------       ----------------------
    
    SOL(2ªcejil)                    FA#m:                   SOL(kinta):
    e-------------------------      -----------------       -----------------
    B-------------------------      -----------------       -----------------
    G-------------------------      -----------------       -----------------
    D--------12-------12----12      ------4-----4---4       ------5-----5---5
    A--10-10-10-10-10-10-10-10      --4-4-4-4-4-4-4-4       --5-5-5-5-5-5-5-5
    E-------------------------      --2-2-2-2-2-2-2-2       --3-3-3-3-3-3-3-3
    
    
  • Esta cancion es muy linda pero el bajo es mas complicado
    que la guitarra...aqui estan los riffs principales
    ustedes los unen pq a mi realmente no me gusta hacer tabs con
    muchos riffs sino con los basicos, los que debes memorizar y luego 
    le pones los arreglos que aqui incluyo algunos
    
    Verso
    
    G|------------------------------------------------|
    D|------------------------------------------------|
    A|-4-4-4-4-4-4/6-6-6-6-6-6/8-8-8-8-8-8/9-9-9-9-9--|
    E|------------------------------------------------|
    
    G|------------------------------------------------------|
    D|------------------------------------------------------|
    A|-4-4-4-4-4-4/6-6-6-6-6-6/1-1-1-1-1-1------------------|
    E|-------------------------------------2-2-2-2-2/4-4-4--|
    
    Bridge
    
    G|--------------------------------------------------------------------|
    D|--------------------------------------------------------------------|
    A|--------------------------------4-4-4-4-4---------------------------|
    E|-6-6-1/6-6--4-4-
  • +
    ¡Colabora con nosotros!
    Envíanos tu versión de esta canción

Letra de Una foto en blanco y negro
Solamente oír tu voz
Ver tu foto en blanco y negro
Recorrer esa ciudad
Yo ya me muero de amor
Ver la vida sin reloj
Y contarte mis secretos
No saber si ya besarte
O esperar que salga solo
Y vivir así, yo quiero vivir así
Ni siquiera se si, sientes tu lo mismo
Me desperté soñando que estaba a tu lado
Y me quede pensando que tienen esas manos
Se que no es el momento, para que pase algo
Quiero volverte a ver, yo quiero volverte a ver
Quiero volverte a ver………
Y me siento como un niño
Imaginándome contigo
Como si hubiéramos ganado
Por habernos conocido
Esta sensación extraña
Que se adueña de mi cara
Juega con esta sonrisa
Dibujándola a sus anchas
Y vivir así, yo quiero vivir así
Ni siquiera se si, sientes tu lo mismo
Me desperté soñando que estaba a tu lado
Y me quede pensando que tienen esas manos
Se que no es el momento, para que pase algo
Yo Quiero volverte a ver
*Lo q sigue es con eléctrica pero pueden tocar esto:
Ni siquiera se si, sientes tu lo mismo
#SUBE DE TONO
Me desperté soñando que estaba a tu lado
Y me quede pensando que tienen esas manos
Se que no es el momento, para que pase algo
Yo Quiero volverte a ver….




[Una foto en blanco y negro acordes][Una foto en blanco y negro chords]
© LaCuerda.net · notícia legal · privacidade · es · en · pt · contato
DINAMICO