Cifras para Violão e Guitarra » C »El Canto del Loco » Puede ser (Tab)

Puede ser
El Canto del Loco

Letras, cifras e tablaturas para violão, guitarra, piano, ukulele e baixo

  • Intro : FA#  DO#  RE#m DO# SI DO#sus4
    
    FA#       DO#        RE#m
     No se si quedan amigos
            DO#      SI
    Y si existe el amor
                        DO#sus4
    Si puedo contar contigo
                      FA#
    Para hablar de dolor
                DO#           RE#m
    Si existe alguien que escuche
             DO#    SI
    cuando alzo la voz
                  DO#sus4
    Y no sentirme solo
    
    FA#                DO#
    Puede ser que la vida
         RE#m         DO#
    
  • SOL               MIm
    No sé si quedan amigos
                 DO
    Ni si existe el amor
                   RE      
    Si puedo contar contigo
                 SOL
    Para hablar de dolor
                       MIm 
    Si existe alguien que escuche
                 DO 
    Cuando alzo la voz
                 RE 
    Y no sentirme sola
    
    
    (Estribillo) 
         SOL        RE         MIm
    Puede ser que la vida me guíe hasta el Sol 
          DO         SI      DO          RE
    
  •     - C - Gaad11/B - Am - Am7/G - F - G - E - Dm - Am7/G# - D/F# -
    E ----x------x-------x------3-----1---3---0----x-----4-------2----------------
    A ----3------2-------0------0-----3---2---2----x-----0-------0----------------
    D ----2------0-------2------2-----3---0---2----0-----2-------0----------------
    G ----0------0-------2------0-----2---0---1----2-----0-------2----------------
    B ----1------1-------1------1-----1---3---0----3-----1-------3----------------
    e ----0------0-------0------0-----1---3---0----1-----0-------x----------------
    
    Intro :
    
    C  Gaad11/B  Am Am7/G  F G
    
    C       Gaad11/B    Am
    No se si quedan amigos
           Am7/G     F  
    Y si existe el amor
                        G
    Si puedo contar contigo
                       C
    Para hablar de dolor
    
  • B  G#m  E  F#
    
    B        F#         G#m
    No se si quedan amigos
    F#               E
    Y si existe el amor
                         F#
    Si puedo contar contigo
                      B
    Para hablar de dolor
                F#            G#m
    Si existe alguien que escuche 
    F#               E
    cuando alzo la voz
                    F#
    Y no sentirme sola
    
    B                  F#
    Puede ser que la vida
          G#m          F#
    
  • Intro   G  D/F#  Em  Em7  C  D
    
    G           D/F#   Em          Em7       C
    No sé si quedan amigos, y si existe el amor,
                        D                       G
    si puedo contar contigo, para hablar de dolor,
    si existe alguien que escuche, cuando alzo la voz,
    y no sentirme solo.
    
    CORO 1
           G           D/F#     Em          Em7
    Puede ser, que la vida, me guíe hasta el sol,
           C           B      C         D
    puede ser, que el mar, domine tus horas,
           G      D/F#      Em       Em7        C
    o que toda tu risa, le gane ese pulso al dolor,
           B           C C/B Am7  G
    puede ser, que lo malo sea hoy, que lo malo sea hoy.
    
    Voy haciendo mis planes, voy sabiendo quien soy,
    
  • INTRO: G Dsus4/F# Em7(1) Em7 Em7(1) C D9sus4
    
    G       Dsus4/F#       Em7(1) Em7 Em7(1)      C
       No sé si quedan amigos, ni si existe el amor,
                          D9sus4
       si puedo contar contigo, para hablar de dolor,
    G            Dsus4/F#       Em7(1) Em7 Em7(1)         C
       si existe alguien que escuche, cuando alzo la voz,
                      D9sus4
       y no sentirme solo.
    
    CORO
           G          D9/F#     Em7(1)       Em7(2)
    Puede ser, que la vida, me guie hasta el sol,
           C           B      C         D9sus4
    puede ser, que el mal, domine tus horas,
           G      D9/F#     Em7(1)  Em7(2)     C
    o que toda tu risa, le gane ese pulso al dolor,
           B           C       G Dsus4/F# Em7(1) Em7 Em7(1)
    puede ser, que lo malo sea hoy, que lo malo sea hoy.
    
  •   G                 Em                C                 D
    e|-----------------|-----------------|-----------------|-----------------|
    B|-----------------|-----------------|-----------------|-----------------|
    G|-----------------|--------0--------|--------0--------|--------2--------|
    D|--------0------0-|-----------------|-----2-----------|-----4-------0---|
    A|-----2-------2---|-----2-------2---|-------------3---|-0---------0-----|
    E|-3---------2-----|-0---------0---0-|-3---------3-----|-----------------|
    
      G                 Em                C                 D
    e|-----------------|-----------------|-----------------|-----------------|
    B|-----------------|-----------------|-----------------|-----------------|
    G|--------0------0-|--------0------0-|--------0--------|--------2------2-|
    D|--------------0--|-----2--------2--|-----2-------2---|--------------4--|
    A|-----2-------2---|-------------2---|-----------------|-----5-------5---|
    E|-3---------3-----|-0---------0-----|-3---------3-----|-5---------5-----|
    No sé si quedan amigos ni si existe el amor,
    si puedo contar contigo para hablar de dolor.
    
      G                 Em                C                 D
    e|-----------------|-----------------|-----------------|-----------------|
    
  • +
    ¡Colabora con nosotros!
    Envíanos tu versión de esta canción
  • Tutorial
    HD
    Como tocar Puede Ser - ECDL feat LOVG TUTORIAL Guitarra Acordes y TABS
    8:37

Letra de Puede ser
No se si quedan amigos
Y si existe el amor
Si puedo contar contigo
Para hablar de dolor
Si existe alguien que escuche
cuando alzo la voz
Y no sentirme sola
Puede ser que la vida
Me guie hasta el sol
Puede ser que el mal
Domine tus horas
O que toda tu risa
Le gane este pulso al dolor
Puede ser
que el malo sea hoy
Naces y vives solo
Naces y vives solo
Naces y vives solo ooh
Voy haciendo mis planes
Voy sabiendo quien soy
Voy buscando mi parte
Voy logrando el control

Van jugando contigo
Van rompiendo tu amor
Van dejandote solo
Naces y vives solo
Naces y vives solo
Naces y vives solo ooh
Algo puede mejorar
Algo que puedo encontrar
Algo que me de ese aliento
que me ayude a imaginar
Y yo lo quiero lograr
Ya no quiero recordar
Darle tiempo a este momento
que me ayude a superar
que me de tu sentimiento
Puede ser que la vida
Me guie hasta el sol
Puede ser que el mal
Domine tus horas
O que toda tu risa
Le gane este pulso al dolor
No me acaba de convencer del todo la
estrofa que empieza 'Algo puede mejorar....'.
El resto está clavado.Agradezco sugerencias
y correcciones a pintadosergio@hotmail.com




[Puede ser acordes][Puede ser chords]
© LaCuerda.net · notícia legal · privacidade · es · en · pt · contato
DINAMICO