Cifras para Violão e Guitarra » E »Enanitos Verdes » Amores Lejanos (Tab)

Amores Lejanos
Enanitos Verdes

Letras, cifras e tablaturas para violão, guitarra, piano, ukulele e baixo

  •      Dm                      Am
    Esta tarde no pasa nada, las calles parecen desiertas,
          Dm                         Am                 G
    Carmencita se fue de viaje, y quizás nunca mas la vea.
         Dm                         Am
    yo mirando por la ventana, el asfalto brillando perlas,
          Dm                 F          C                 G
    los lugares que frecuentaba, no me atraen ni me interesan.
    
    Coro:
    
                      F    G               Am
    Y aunque hoy no estas,   voy planificando
               F    G          Am
    una y otra vez,   amores lejanos.
                        F    G              Am
    Amy aunque hoy no estas,   te habro mis brazos
               F   G          Am
    yo me quedare,   aquí esperando.
    
    
  • Dm - Am
    Dm - Am - G
    
    e:I------------------1-----I-----------------0-----I
    B:I-----0-1-3----------3---I-----1-3h5-3-1-----1---I
    G:I---2-------2-0--------2-I---2-----------------2-I
    D:I-2-------------0--------I-3-------------2-------I
    A:I------------------------I-----------------------I
    E:I------------------------I-----------------------I
    
    e:I------------------1-----I-----------------0---0---I
    B:I-----0-1-3----------3---I-----1-3h5-3-1---------3-I
    G:I---2-------2-0--------2-I---2---------------2-----I
    D:I-2-------------0--------I-3-------------2---------I
    A:I------------------------I-------------------------I
    E:I------------------------I-------------------------I
    
          Dm                         Am    
    Esta tarde no pasa nada, las calles parecen desiertas,
         Dm                          Am                G
    
  • INTRO:  -----Dm  Am Dm  Am  G-----
    
    
    SOLO:
    
    
             (1)   Breve pausa               (2)                 Breve pausa
    e-I----------------I---------------------------------------------I
    B-I----0-1-3-------I---3h5-3-----8p5-----------------------------I
    G-I--2-------2-0---I-----------------7p5--7-5-7------------------I
    D-I2-------------0-I-----------------------------7p5-------------I
    A-I----------------I---------------------------------7--7p5/3h5~-I
    E-I----------------I---------------------------------------------I
    
                   (3)                                (4)
                             Breve pausa - ESTA PARTE SE TOCA RAPIDO
    e-I--------------------------I---------------------------------7h8p7------I
    B-I-----5-8-5-6---5/3--------I--3-------------------------8---------------I
    G-I-5-7---------7------5-4-5-I----4h5p4---5p4-------7-7h9---8-------------I
    D-I--------------------------I----------7-----7-5-7-----------------------I
    
  • B:I-----0-1-3----------3---I-----1-3h5-3-1-----1---I
    G:I---2-------2-0--------2-I---2-----------------2-I
    D:I-2-------------0--------I-3-------------2-------I
    A:I------------------------I-----------------------I
    E:I------------------------I-----------------------I
    
    e:I------------------1-----I-----------------0---0---I
    B:I-----0-1-3----------3---I-----1-3h5-3-1---------3-I
    G:I---2-------2-0--------2-I---2---------------2-----I
    D:I-2-------------0--------I-3-------------2---------I
    A:I------------------------I-------------------------I
    E:I------------------------I-------------------------I
    
    
     Dm                              Am    
      Esta tarde no pasa nada, las calles parecen desiertas,
     Dm                                Am                 G
      carmencita se fue de viaje, y quiza nunca mas la vea.
     Dm                                 Am
      yo mirando por la ventana, el asfalto brillando perlas,
    
  •   Dm
      Esta tarde no pasa nada
    
      e|-------5-----5-5---|
      B|-------------6-6---|
      G|-------------7-7---|
      D|-------------------|
      A|-------------------|
      E|-------------------|
    
      Am
      las calles parecen desiertas
    
      e|--5--5-5------5--5---|
      B|-----6-6---------6---|
      G|-----7-7-------------|
      D|---------------------|
      A|---------------------|
      E|---------------------|
    
    
  • e --------------------------------------------------------------I
    B -13-12-10-13-12-10----10-12----10-----------------------------I
    G -------------------12-------12----9-10-7-9-5-4-2-0-2~2~2~2~2~-I
    D --------------------------------------------------------------I
    A --------------------------------------------------------------I
    E --------------------------------------------------------------I
    
    Intro: Tema
    
    e:I-------------------1-----I---------0---------0----I
    B:I-----0-1-3-----------3---I-----1-3---3-1-------1--I
    G:I---2-------2-0---2-----2-I---2-------------2------I
    D:I-2-------------0---------I-3-------------2--------I
    A:I-------------------------I------------------------I
    E:I-------------------------I------------------------I
    
    e:I-------------------1-----I---------0-----------0-------0---I
    B:I-----0-1-3-----------3---I-----1-3---3-1-----1---1---1---1-I
    G:I---2-------2-0---2-----2-I---2-------------2-------3-------I
    D:I-2-------------0---------I-3-------------2-----------------I
    
  • -Esta versión es del CD En Vivo.
    
    
    *Intro:
    
    
    -Gtrra. Acústica:
    
    1. ------------------------------------------------|
    2. -----0-1-3-3/5-3-1-3-3/5------------------------|
    3. ---2---------------------5----------------------|
    4. -2-------------------------7-7--5---5-----------|
    5. ----------------------------------7---5-7-3-5-0-|
    6. ------------------------------------------------|
    
    1. -------------3----------------------|
    2. ---1-3-3-3/5---3/5/3-1--1-3/5/3-1/3-|
    3. -2---------------------2------------|
    4. ------------------------------------|
    5. ------------------------------------|
    6. ------------------------------------|
    
    1. ---------0-1-0-----0-----------------|
    2. ---0-1-3-------3-1---3-1-3-1-0-------|
    3. -2-----------------------------2-0-2-|
    4. -------------------------------------|
    5. -------------------------------------|
    6. -------------------------------------|
    
    1. -----------5-7-8-7-5---------------------------------|
    2. -------5-8-----------8-6-5-6-5-------5-8-6-5---5h6p5-|
  • bueno aqui esta la rola de este gurpo k tanto me gusta,
    mmm.. pues les dejo una base buena y k sirve, en todo caso
    esta cancion tiene muchos detalles en el bajo k no voy a
    escribir porque bien que cada uno puede meterle detalles
    y arreglos propios como quieran, yo aqui les dejo la base.
    
    primero el arpegio de la guitarra y depues entra el bajo asi
    
    
    INTRO:
    
    G|------55----------55-------------------------|
    D|----7----7-----7------5------55-------55-----|
    A|--5---------5--------------7----7---7-----5--|
    E|-------------------------5--------5----------|
    
    G|------55----------55-----------------|
    D|----7----7-----7------5------55------|
    A|--5---------5--------------7----7----|
    E|-------------------------5---------5-|
    
    G|---------------|
    D|---------------|
    A|-7-7-7-7-7-7-7-|
    E|---------------|
    
    VERSO:
    
    "Esta tarde no pasa nada..."
    
    G|------55----------55-------------------------|
    D|----7----7-----7------5------55-------55-----|
    A|--5---------5--------------7----7---7-----5--|
    E|--------------
  • Cr=Crash 16"
    C2=Crash 18"
    CH=Chaina
    Rd=Ride  20"
    Hh=Hit hats 14"
    Ta=Tarola
    T1=Tom 1
    T2=Tom 2
    Tp=Tom de piso
    Bo=Bombo
         d(dos golpes rapidos)
    (Esta cancion es en octavos los hit hats)
    
    (Intro)
              (---x6---)
    Cr|X------|--------|
    Hh|-xxxxxx|xxxxxxxx|
    Ta|--o---o|---o---o|
    Bo|o--oo--|-o--oo--|
    
    (para entar a los versos)
    
    Cr|-------X|
    Hh|xxxxxxx-|
    Ta|---o---o|
    Bo|-o--oo--|
    
    (Esta tarde no pasa nada
     las calles parecen desiertas
    carmensita se fue de viaje
    y quizas nunca mas la vea
    yo mirando por la ventana
    el asfalto brillando perlas
    los lugares q frecuentaba
    no me atraen ni me interesan...)
    
    versos    (---x15--)
    C2|X------|--------|
    Hh|-xxxxxx|xxxxxxxx|
    Ta|--o---o|---o---o|
    Bo|o--oo--|-o--oo--|
    
    (remate para entrar al coro)
    
    
    CH|--------------X|
    Hh|x-x-x-x--------|
    T1|-------------o-|
    Ta|-------o-oooo--|
    Bo|o-o-o-o-------o|
    
    (Coro)
    
                (--x7---)       (---x6---)
    Cr|---------|-------|X------|--------|
    Rd|x-x-x-x-x|x-x-x-x|--x-x-x|-x-x-x-x|
    Ta|o---o---o|--o---o|--o---o|---o-
  • +
    ¡Colabora con nosotros!
    Envíanos tu versión de esta canción
  • Tutorial
    HD
    Explicado - Como tocar "Amores lejanos" de Enanitos Verdes en el bajo tutorial#341
    18:31
  • Tutorial
    HD
    Como tocar "Amores Lejanos" de "Enanitos verdes" en Guitarra Acusica
    8:56

Letra de Amores Lejanos
Esta tarde no pasa nada, las calles parecen desiertas,
Carmencita se fue de viaje, y quiza nunca mas la vea.
yo mirando por la ventana, el asfalto brillando perlas,
los lugares que frecuentaba, no me atraen ni me interesan.
y aunque hoy no estas, voy planificando
una y otra vez amores lejanos.
y aunque hoy no estas, te habro mis brazos
yo me quedare, aqui esperando
Esta tarde no pasa nada, no me puedo olvidar de ella,
hace un mes que la estoy pensando, y no se si de mi se acuerda.
mi futuro es algo incierto, pero ese no es el problema,
donde pongo mi sentimiento, si esta noche hay luna llena.
y aunque hoy no estas, voy planificando
una y otra vez amores lejanos.
y aunque hoy no estas, te habro mis brazos
yo me quedare, aqui esperando
y aunque hoy no estas, voy planificando
una y otra vez amores lejanos.
y aunque hoy no estas, te habro mis brazos
yo me quedare, aqui esperando.
oh oh oh oh oh oh oh oh oh oh oh oh
oh oh oh oh oh oh oh oh oh oh oh oh

y aunque hoy no estas, voy planificando
una y otra vez amores lejanos.

y aunque hoy no estas, te habro mis brazos
yo me quedare, aqui esperando.




[Amores Lejanos acordes][Amores Lejanos chords]
© LaCuerda.net · notícia legal · privacidade · es · en · pt · contato
DINAMICO