Cifras para Violão e Guitarra » E »Enanitos Verdes » Como seduce el mar (Tab)

Como seduce el mar
Enanitos Verdes

Letras, cifras e tablaturas para violão, guitarra, piano, ukulele e baixo

  •  A#   F  Gm  F   D# Cm   D# F7
    e----------------------------------------------------------------
    B-----6~-----6~--4~--3~--4~--6~-----------------------------------
    G-3~------0------------------------------------------------------
    D----------------------------------------------------------------
    A----------------------------------------------------------------
    E----------------------------------------------------------------
    
      A#              F       Gm      F   D#  Cm    D#      F7
    e-------------------------------------------------------------------
    B-6-8-6-8-6~-6-8-6-4-3-4-3~-\1-1----1-3-4~---------------8-11-13-11-
    G--------------------------------3---------0------7-8-7~---------------
    D--------------------------------------------8~-8--------------------
    A-------------------------------------------------------------------
    E-------------------------------------------------------------------
    
    A#     F          Gm
    yo conoci esta ciudad cuando
      F       D#  Cm    D#           F7 3---3-3-3-2-3-3
    la noche caiiiia con la luna y sofa
    
  • +
    ¡Colabora con nosotros!
    Envíanos tu versión de esta canción

Letra de Como seduce el mar
yo conoci esta ciudad cuando
la noche caiiiia con la luna y sofa
demostrar cada lugar con un
encanto de niiiña de cemento y estras
y me envolvio como envuelve el mar
y fui tan vulnerable en sus brazos de cristal
y me sedujo como seduce el mar
3--1-3-5
y fui tan vulnerable...tan vulnerable
en sus braaazos de cristal
repetir punteos del intro
y asi yo vi pasar el arte
milenaaario de una estrella de mar
y escuche la voz de un hombre
de mil aaaaños con un rostro angelical
que me envolvio como envuelve el mar
pero fui invulnerable a su canto de ultramar
y no intente siquiera escapar
como escapar de esta poesia sin final
3--3-5~
sin final uoooou
repetir punteos del intro
yo conoci esta ciudad cuando
2-6h8--6h8-6
la noche caiiiia con sus años ???/??
3--3h5-7-3-5-7 X2
y ahora estoy aqui
3--3h5-7-3-5-7 X2
sentado en las piieedras que me vieron nacer......naaaceeeer
nada mas falta la parte final donde la guitarra electrica entra con distorcion
Las partes donde lleva D# se deben tocar en el 3 traste para que se escuche igual
abajo viene la posicion.
Acordes:




[Como seduce el mar acordes][Como seduce el mar chords]
© LaCuerda.net · notícia legal · privacidade · es · en · pt · contato
DINAMICO