Cifras para Violão e Guitarra » F »los Fabulosos Cadillacs » Siguiendo la Luna (Tab)

Siguiendo la Luna
los Fabulosos Cadillacs

Letras, cifras e tablaturas para violão, guitarra, piano, ukulele e baixo

  • A)             
                RE 
            Siguiendo la luna no llegare lejos,
                                  MIm
            tan lejos como se pueda llegar
                               RE
            las cosas que dije no tienen sentido
                     DO      SOL
            no puedo detenerme, ponerme a pensar, oh
    
    B)         
             MIm                    RE
            Siguiendo la luna y su veta invisible
                                 MIm
            la noche seguro que me alcanzara
                               RE
            no es que tu mirada me sea imposible
            DO              SOL
            tan solo es la forma como caminas
    
    
  • Intro: [Em D]
    
    Em                               D
      Siguiendo la lunda no llegare lejos
    D                             Em
      tan lejos como se pueda llegar
    Em                                D
      las cosas que dije no tiene sentido
                  C                   G 
    no puedo detenerme, ponerme a pensar
    
    
    Siguiendo la luna en su vuelta invisible
    la noche seguro que me alcanzara
    no es que tu mirada no sea imposible
    tan solo es la forma como caminas
    
    C                                 G
      Vamos mi cariño que todo esta bien
                     Bm                   D 
    
  •                                D
    Siguiendo la luna no llegare lejos
                                Em
    Tan lejos como se pueda llegar
                                      D
    Las cosas que dije no tienen sentido
                    C
    No puedo detenerme,
                 G
    Ponerme a pensar, oh
    Em                                 D
    Siguiendo la luna y su veta invisible
                                  Em
    La noche seguro que me alcanzara
                                     D
    No es que tu mirada me sea imposible
                      C           G
    Tan solo es la forma como caminas
    C                               G
    Vamos mi cariño que todo esta bien
    
  • E---------------------------------------------|
    B---------------------------------------------|
    G---------------------------------------------|
    D---------------------------------------------|
    A---------------------------------------------|
    E--4--5-5--4--4--5--5--4--4--5--5--5--5--(5)--|
    
    
    intro: Bm - D
    
                               D                          
    Siguiendo la luna no llegare lejos 
    
                             Em
    tan lejos como se pueda llegar 
    
                                  D
    las cosas que dije no tienen sentido 
    
             C
    
  • Bajo (F. O. Cianciarulo)
    
    Intro
                 E  E  E  Q.     S  E  S    E  E  E  E  Q    E  E
    G||-------|--------------------------|-------------------------|
    D||-------|--------------------------|-------------------------|
    A||-------|--7--7--7--7--------------|--7--7--7--7----------7--|
    E||-------|------------------7-10--7-|-------------------7-----|
    
    
      E  E  E  E  Q    S S S S    E  E  E  E  Q    E  E
    ---------------------------|-------------------------|
    ---------------------------|-------------------------|
    --5--5--5--5---------------|--5--5--5--5----------5--|
    -------------------5-8-8-5-|-------------------7-----|
    
    
      E  E  E  Q.      Q       S E  E  S E  Q    Q
    ------------------------|-------------------------|
    ------------------------|-------------------------|
    --7--7--7--7/-----------|--5-7--7--5-7--L---------|
    ------------------------|--------------------7----|
    
    
      E  E  E  E  Q    S S S S    E  E  E  E  Q    E  E
    ---------------------------|-------------------------|
    ------
  • ATAME:Los Fabulosos Cadillacs
    Los Fabulosos Cadillacs: Siguiendo La Luna
    Transcripcion de: Cesar Vazquez
                      Ciudad de Mexico
                     cesarvazquezbocho@hotmail.com
    esta rola la deben de escuchar varias veces para que les salga bien                                    
    
    ------------------------------|-----------------------------|------|-------------|
    ------------------------------|-----------------------------|------|-------------|
    --7-7-7-7-------------7-7-7-7-|--5-5-5-5------------5-5-5-5-|--7/2-|-5h7-5h7-5h7-|
    ----------7-7--7h10-7---------|----------5-5--5h8-5---------|------|-------------|
    
    -----------------------------|------|
    -----------------------------|------|
    --5-5-5-5------------5-5-5-5-|--5/7-|
    ----------5-5--5h8-5---------|------|
    
    siguiendo la luna ...                                           los cosas que..
    -------------------------------------------|-----|-------------|--------|---------|--------------|
    ------------------------
  • +
    ¡Colabora con nosotros!
    Envíanos tu versión de esta canción
  • Tutorial
    Siguiendo la Luna - Los Fabulosos Cadillacs (Solo)
    0:39
  • Tutorial
    HD
    Explicado - Como tocar "Siguiendo la luna" de Los Fabulosos Cadillacs en el bajo tutorial#223
    21:21
  • Tutorial
    HD
    Como Tocar Siguiendo La Luna - Fabulosos Cadillacs [Tutorial Guitarra]
    11:22

Letra de Siguiendo la Luna
Siguiendo la luna no llegare lejos,
tan lejos como se pueda llegar
las cosas que dije no tienen sentido
no puedo detenerme, ponerme a pensar, oh
Siguiendo la luna y su veta invisible
la noche seguro que me alcanzara
no es que tu mirada me sea imposible
tan solo es la forma como caminas
Vamos mi carino que todo esta bien
esta noche cambiare, te juro que cambiare
vamos mi carino ya no llores mas
por vos yo bajaria el sol, o me hundiria en el mar
y esto parece verdad para mi

Suena como un crimen lo que tu me has hecho
deberias ir a parar a la prision

suena como un crimen que me hayas mentido
que hayas enganado a este corazon
Son casi las cuatro de la madrugada
mi casa brillaba, cruzando ese mar
y esto parece verdad para mi
y esto parece verdad para mi




[Siguiendo la Luna acordes][Siguiendo la Luna chords]
© LaCuerda.net · notícia legal · privacidade · es · en · pt · contato
DINAMICO