Cifras para Violão e Guitarra » F »los Fabulosos Cadillacs » Vasos Vacíos (Tab)

Vasos Vacíos
los Fabulosos Cadillacs

Letras, cifras e tablaturas para violão, guitarra, piano, ukulele e baixo

  • G
    No se bien que dia es hoy
    Em
    solo se que te vi salir
         C
    y en cinco minutos perdi,
          D7
    las letras para hablarte a vos.
    
    G
    Yo se que no tengo palabras,
    Em
    y nunca las voy a tener,
        C
    por eso aprovecho esta noche,
        D7
    tal vez lo puedas entender.
    
    G
    Por eso aprovecho esta noche,
    
  • e --3-2----3-2-5-0----3-2-------3-2-----
    B ------3-----------------3-0-3----3-0-3
    G --------------------------------------
    D --------------------------------------
    A --------------------------------------
    E --------------------------------------
    
    G
    No se bien que dia es hoy
    Em
    solo se que te vi salir
         C
    y en cinco minutos perdi,
          D
    las letras para hablarte a vos.
    
    G
    Yo se que no tengo palabras,
    Em
    y nunca las voy a tener,
    
  • e --3-2----3-2-5-0----3-2-------3-2-----
    B ------3-----------------3-0-3----3-0-3
    G --------------------------------------
    D --------------------------------------
    A --------------------------------------
    E --------------------------------------
    
    G
    No se bien que dia es hoy
    Em
    solo se que te vi salir
         C
    y en cinco minutos perdi,
          D
    las letras para hablarte a vos.
    
    G
    Yo se que no tengo palabras,
    Em
    y nunca las voy a tener,
    
  •         G      Em        C          D
    e--------------------------------------
    B---8-7----8-7-10-7--8-7----8-7--------
    G-------7----------------7------7-5-7--
    D--------------------------------------
    A--------------------------------------
    E--------------------------------------
        G
    No sé que día es hoy,
       Em
    sólo sé que te vi salir,
         C
    ni cinco minutos perdí,
          D
    las letras para hablar de amor.
    
    Yo sé que no tengo palabras,
    y nunca las voy a tener,
    por eso aprovecho esta noche,
    ya vez, estoy sola otra vez.
    
  • esta es mi primera transcripcion gosenla
    Intro:
    
    e --3-2------3-2-5-2------3-2-------3-2-----------------
    B --------3------------------------3-----------3-1-3----
    G --------------------------------------------------------
    D --------------------------------------------------------
    A ---------------------------------------------------------
    E ----------------------------------------------------------
    
    
    
    MODIFICACION A LA TRANSCRIPCION DE:
    daniel sg (compayitodaniel@hotmail.com)
    **********************************************************************
    
    
    Este es el intro de la canción según yo:
    
    e --3-2----3-2-5-0----3-2----3-2-------
    B ------3-----------------3------3-1-3-
    G -------------------------------------
    D -------------------------------------
    A -------------------------------------
    E -------------------------------------
    
    Eso es todo , esta muy fácil y espero que este bien
    por que no me acuerdo muy bien.
    
    Dedico esta pequeña colaboración para mi gran amor:
    PAM TE AMO. daniel.
  • E  ------------------------------------------------------
    B  -8-7------8-7-10-7--------8-7--------8-7--------------
    G  ----7------------------------7----------7-5-7---------
    D  ------------------------------------------------------
    A  ------------------------------------------------------
    E  ------------------------------------------------------
    
    Hasta ahi seria el punteo, pero yo le agregue (seguido del
    punteo de arriba) un arreglo que se escucha bien(lo puede
    hacer la misma guitarra que puntea, o bien, otra guitarra)
    
    E  ---11----9---8----6--5--------------------------------
    B  -8-8---6-6-5-5--3-3--2--------------------------------
    G  ------------------------------------------------------
    D  ------------------------------------------------------
    A  ------------------------------------------------------
    E  ------------------------------------------------------
    
    Para acompañar el tema se toca con estos acordes:
    
    
  • A) VERSOS
    
       G
    G|-----------------------------|
    D|---------------------5-------|
    A|---------3--5--3--5----------|
    E|---3-------------------------|
    
       e
    G|-----------------------------|
    D|-2-2-4-2---2-2-4-2---2-------|
    A|-----------------------3-----|
    E|-----------------------------|
    
       C
    G|-----------------------------|
    D|-2--------------2------------|
    A|---3--------------3----------|
    E|-----------------------------|
    
       D
    G|-----------------------------|
    D|-4--------------4------------|
    A|---5--------------5----------|
    E|------------------------5----|
    
    B) CORO Y FINAL
       C
    G|-----------------------------|
    D|-----------------------------|
    A|----3----3-3----3-----3-3---3|
    E|-----------------------------|
    
       G
    G|--------------|
    D|-5-------5-4-3|
    A|--------------|
    E|--------------|
       e
    G|-----------------------------|
    D|-2-2-4-2---2-2-4-2-----------|
    A|-----------------------------|
    E|-----------------------------|
    
       C		  D
    G|-----------
  • Hola les envio esta transcripcion para bajo,
    seguramente tiene algunos errores pero bueno,
    espero que lo notifiquen para saberlo.
     No estoy muy seguro de como escribir el tiempo
    con esa notacion pero escuchandola es facil de relacionar
    Suerte!!!!
    
    A) VERSOS desde la intro
    
    G|-----------------------------------------------|
    D|----------------5--------2-2-5-2---2-2-5-2--2--|
    A|----------2-5---------7-5--------------------3-|
    E|---3-3--3-----3--------------------------------|
    
    G------------------------------------|
    D---2--2------2--2-----4---4---4-----|
    A-----3--3------3--3-----5---5--5----|
    E---------------------------------5--|
    se repite en todo el verso con
    unas ligeras variaciones en
    toda la cancion
    
    B) CORO:
    
    G|--------------------------------------|
    D|----------------------------------0-2-|
    A|---3----3-3---5-3-------5-5-7-2-------|
    E|------3-----------5--3----------------|
    
    G------------------------------------------|
    D------------4-------4-5-------------5-----|
    A-3-3-3---3-3--5-5-3
  • +
    ¡Colabora con nosotros!
    Envíanos tu versión de esta canción
  • Tutorial
    como tocar Vasos Vacios a dueto y con guitarras 1/3
    5:04
  • Tutorial
    HD
    Como tocar VASOS VACIOS en guitarra ✪ Fabulosos Cadillacs ✔️ TABS
    ACORDES
    4:20
  • Tutorial
    HD
    Como tocar VASOS VACIOS en guitarra - Los Fabulosos Cadillacs [Tutorial Rockstars]
    8:22

Letra de Vasos Vacíos
No se bien que dia es hoy
y en cinco minutos perdi,
las letras para hablarte a vos.
Yo se que no tengo palabras,
y nunca las voy a tener,
por eso aprovecho esta noche,
tal vez lo puedas entender.
Por eso aprovecho esta noche,
tal vez lo puedas entender
no me importa poner las letras
mañana cuando te levantes,
y pienses lo que dije ayer
ay nena porque en este juego
a mi siempre me toca perder.
Estribillo:
Siempre habra vasos vacios
con agua de la ciudad
la nuestra es agua de rio
mezclada con mar.
Levanta los brazos mujer
y ponte esta noche a bailar
que la nuestra es agua de rio
mezclada con mar.




[Vasos Vacíos acordes][Vasos Vacíos chords]
© LaCuerda.net · notícia legal · privacidade · es · en · pt · contato
DINAMICO