Cifras para Violão e Guitarra » G »Gian Marco » Parte de este juego (Tab)

Parte de este juego
Gian Marco

Letras, cifras e tablaturas para violão, guitarra, piano, ukulele e baixo

  • G              D
    No sé, que esta fallando,
          Em               Bm
    algo, tu y yo ya no es lo mismo,
          C            G
    quiero, saber que nos sucede,
                       F
    si es que como antes, tu a mí
        D
    me quieres.
    
    G              D
    Tengo en mi cabeza dudas,
          Em               Bm
    frases que me dijiste a oscuras
          C        G              F
    ojos azul marino que por las noches
               D
    me dieron frio.
    
    
  • e---33-----------33--------33-----------33--------------------3------
    B---33-----------33--------33-----------33-------------------3---3---
    G---00-----------00--------00-----------00------------------2-----2--
    D-2------------0---------2------------0--------------------0---------
    A-3---------2------------3---------2--------------3--2---------------
    E------------------------------------------------------------3-------
    
    G: 320033
    D: 000232
    Em: 022000
    Bm: 224432
    C: 032010
    Am7:002010
    A7: 002020
    D?: 023230
    D?1: 023130
    
    
    G              D      
    No sé, que esta fallando,
    
  •      C2     D/F#   Fmaj13  Dsus4     D5
    e|---0---|---2---|---0---|---3---|---5---|
    B|---3---|---3---|---3---|---3---|---3---|
    G|---0---|---2---|---2---|---2---|---2---|
    D|---2---|---0---|---3---|---X---|---X---|
    A|---3---|---0---|---X---|---X---|---X---|
    E|---X---|---2---|---X---|---X---|---X---|
    
    
    Intro:
    
       C2      G      C      G      C2      G    C      Dsus4-D
    e|-0^-3--0---3------3------3--|-0^-3--0---3----------3---3^---|
    B|-3|-3----3-3--3-1-1--1-3-3--|-3|-3----3-3--1-0------3--2|---|
    G|-0|-------------------------|-0|---------------0-2---2-3|---|
    D|-2|-------------------------|-2|------------------0----0|---|
    A|-3|----3-2----2-3----3-2----|-3|----3-2----3-2---0----------|
    E|-X|-------------------------|-X|---------------3------------|
    
    
    
  • Bueno, es la primera vez que publico algo aqui...
    Yo se que tiene muchos errores.
    Espero que puedan corregirlos.
    
    Intro:
    
    e||-----|-------|-------|-------|-----|-------|---------||
    B||-----|-------|-------|-------|-----|-------|---------||
    G||---0-|-0---0-|-----0-|-----0-|---0-|-0---0-|---------||
    D||-2---|---0---|-0-----|-0-2---|-2---|---0---|---------||
    C||-----|-------|---3---|-------|-----|-------|-3-2---0-||
    E||-----|-------|-------|-------|-----|-------|-----3---||
    
    Estrofa 1, 2 y 3
    
    e||-----|-----------|-----|-----|-----------|-----|-----|
    B||-0-3-|-0-3-3---3-|---3-|---0-|---0-0---0-|---0-|-----|
    G||-----|-------2---|-2---|-0---|-0---------|-----|---0-|
    D||-----|-----------|-----|-----|-------4---|-4---|-2---|
    C||-----|-----------|-----|-----|-----------|-----|-----|
    E||-----|-----------|-----|-----|-----------|-----|-----|
             (Ver Anexo)
    
    e||-----------|-----------|-----------||
    B||-----------|-1-0-------|-0-3-0-0---||
    G||---0-0---0-|-----0-2---|---------2-||
    D||-2-----0-
  • Bueno es mi primera transcripción en con la armonica en G
    y es el intro de la canción
    
     ():aspirar
     sin el():soplar
    
         (6) 7 7
    
         (6) 6 7 7
    
          6 (5)7 7
    
         (5) 6 7 7
    
    
         (6) 7 7
    
         (6) 6 7 7
    
         (5) 5 (4) 4 (4)
    
    
    Puedes en el último (4) soplar un poco fuerte y prolongado o
    tremolear para que le dé un efecto para la entrada
  • Esta canción se la dedico a una personita muy linda
    q se llama mariana q puxa noc fue la primera chica
    q me emmmm  aplaudía cuando tocaba especialmente
    cuando toke en el morro solar =)y c preocupaba en
    mi jejej tkmmmmm marianita , espero q le guste el arreglo
    lo hice identica a la cancion y pnsando en mariana jej
    para cualkier cosita escriban a RRJJ10@HOTMAIL.COM
    
    
    
    INTRO : MI SOL SOL RE SOL RE DO SOL DO RE SOL    MI SOL SOL RE SOL DO SI SOL LA
    
    No sé, que esta fallando,
    Si re si re re la re
    algo, tu y yo ya no es lo mismo,
    la re sol si sol si si fa# si
    quiero, saber que nos sucede,
    fa# si mi sol mi sol sol
    si es que como antes, tu a mí
    re si do si sol la fa do re
    me quieres.
    Si si la
    
    
    Tengo en mi cabeza
    Si re si re re la re
    dudas,frases que me dijiste
    la re sol si sol si si fa#
    a oscuras ojos azul marino
    si fa# si mi sol mi sol sol re si
    que por las noches me dieron frio.
    Do si sol la fa do re si si  la
    1 Coro:
    
    No te escondas quiero verte bien
    
  • +
    ¡Colabora con nosotros!
    Envíanos tu versión de esta canción

Letra de Parte de este juego
No sé, que esta fallando,
algo, tu y yo ya no es lo mismo,
quiero, saber que nos sucede,
si es que como antes, tu a mí
me quieres.
(Esta parte es rápida)
riff1
(Se repiten los acordes)
Tengo en mi cabeza dudas,
frases que me dijiste a oscuras
ojos azul marino que por las noches
me dieron frio. (riff1)
1 Coro:
No te escondas quiero verte bien
la cara, no te vayas que yo ire detras de ti
Ya no importa si me dices que
no me amas, solamente quiero reclamarte todo lo que hice por ti. (riff1)
2 coro:
Que te vaya bien sin mí
si te veo no te conocí
no estan fácil pero es parte de este juego
el teléfono nunca más sonó,
ella por mi calle nunca más pasó
no es tan facil formar parte de tu juego.
(Se repiten los acordes de la primera parte)
Quedate con mi cariño, tenlo,
y ponlo donde tu quieras, solo,
me arde en mi cabeza tus pensamientos
que se me queman
(Repite coro 1)
(Repite coro 2)
no es tan fácil formar parte de tu jue (intro) go

(esta parte es suave y arpegiada)
uh, uh, uh ,uh

____________________________________________
Si encuentran algun error pasenme un e-mail
jsteck@mixmail.com
____________________________________________




[Parte de este juego acordes][Parte de este juego chords]
© LaCuerda.net · notícia legal · privacidade · es · en · pt · contato
DINAMICO