Cifras para Violão e Guitarra » G »Gian Marco » Te mentiría (Tab)

Te mentiría
Gian Marco

Letras, cifras e tablaturas para violão, guitarra, piano, ukulele e baixo

  • E-------------------------------
    B--7-9-7------------------------
    G--------9-------9-9-8----------
    D----------9-9-7-------9-7-7-6--
    A-------------------------------
    E------------------------------- 
    
    E-------------------------------
    B--7-9-7------------------------
    G--------9-------9-9-8-8-9-9----
    D----------9-9-7----------------
    A-------------------------------
    E------------------------------- 
    
    *** Rasgada al final del intro: Re+ - Re+ - La+
    
    
          RE        LA            SIm
    Te mentiría si te digo que no puedo
          SOL                   LA 
    
  •       MI                   LA 
    Te mentiría si te digo que no puedo
          FA-#                  SI 
    que si me dejas no voy a sobrevivir
          SOL-#                  LA 
    te mentiría pues de amor nadie se muere
          FA-#              LA             MI       
    que el dolor pasa y se acurruca dento de mi.
    
    
          MI                        LA             
    Te extrañaría por las tardes si me acuerdo
          FA-#                       SI       
    pues no es muy bueno la cabeza atormentar
          SOL-#                  LA 
    es mas bonito emocionarme si te veo
          FA-#            LA           MI       
    en una foto pues de frente sería fatal.
    
    
    
  •   D           A/C#            Bm   Bm7/A
    Te mentiría si te digo que no puedo
            G          D/F#         A  A4
    que si me dejas no voy a sobrevivir
       D          B7                     Em
    te mentiría pues de amor nadie se muere
            G               A              D      A7
    que el dolor pasa y se acurruca dento de mi.
    
          D           A/C#            Bm      Bm7/A
    Te extrañaría por las tardes si me acuerdo
              G          D/F#            A        A4
    pues no es muy bueno la cabeza atormentar
        D          B7                 Em
    es mas bonito emocionarme si te veo
              G               A              D  D7
    en una foto pues de frente sería fatal.
    
       G                         F#m
    Te mentiría si te digo que no puedo
    
  • (Intro) A   B   E
    
            E   E/Eb   C#m    C#/B
    Te mentiría si te digo que no puedo
          F#m9                  Bsus4 - B
    que si me dejas no voy a sobrevivir
           G#m        C#m7          F#m
    te mentiría pues de amor nadie se muere
           A             B  - Eb - E      B
    que el dolor pasa y se acurruca dento de mi.
    
    
            E   E/Eb   C#m    C#/B
    Te extrañaría por las tardes si me acuerdo
          F#m9                  Bsus4 - B
    pues no es muy bueno la cabeza atormentar
          G#m        C#m7          F#m
    es mas bonito emocionarme si te veo
          A             B  - Eb - E      E
    en una foto pues de frente sería fatal.
    
  •    D   D           G          A       D
    e|-2-|-0h2-0-----|--------|---------|-------|
    B|-3-|-------3---|-----3~-|-3-2-----|-----3-|
    G|-2-|---------2-|-2-0----|-----2-0-|-0-----|
    D|-0-|-0---------|--------|---------|---4---|
    A|---|-----------|--------|---0-----|-5-----|
    E|---|-----------|-3------|---------|-------|
    
    
       D           G          A              D D A
    e|-0h2-0-----|--------|-------|--------|-------|
    B|-------3---|-----3~-|-3-2-2-|-2/3-3~-|-3-3-2-|
    G|---------2-|-2-0----|---2---|--------|-2-2-2-|
    D|-0---------|--------|-------|--------|-0-0-2-|
    A|-----------|--------|---0---|--------|-----0-|
    E|-----------|-3------|-------|--------|-------|
    
    Ésta parte va arpegiada... se escucha mejor si omiten la primer cuerda
    en el arpegio... ya saben, bajo y arpegio aleatorio jaja
    
    
  • e|------------3-----------------
    b|----------3-------------------
    g|--------4---------------------
    D|------5-----------------------
    A|----5-------------------------
    E|--3---------------------------
    
    FA-#
    
    e|------------4-----------------
    b|----------4-------------------  
    g|--------3---------------------
    D|------4-----------------------  
    A|----4-------------------------
    E|--2---------------------------
    
    SI7
    
    e|------------2-----------------
    b|----------0-------------------  
    
  • +
    ¡Colabora con nosotros!
    Envíanos tu versión de esta canción

Letra de Te mentiría
Te mentiría si te digo que no puedo
que si me dejas no voy a sobrevivir
te mentiría pues de amor nadie se muere
que el dolor pasa y se acurruca dento de mi.
Te extrañaría por las tardes si me acuerdo
pues no es muy bueno la cabeza atormentar
es mas bonito emocionarme si te veo
en una foto pues de frente sería fatal.
Te mentiría si te digo que no puedo
que si me dejas no voy a sobrevivir
te mentiría si te digo que yo vuelvo
a ser de nuevo alguna vez parte de ti.
Te mentiría si te digo que en las noches
ando escribiendo tus memorias en canción
te mentiría pues mandé de vacaciones
a tu mirada, a tus abrazos y a tu olor.
Te mentiría si te digo que me muero
que ando escuchando una canción de esas de ayer
no te equivoques el amor no me da miedo
no te preocupes, lo que me hiciste
no me va a doler.
Ayaya......
Te mentiría si te digo
que me emociono si te veo
no te preocupes te lo dije
porque yo no quiero verte de nuevo.
Para que voy a mentirte
si ni siquiera ya siento
lo que al principio me causabas se borró
dentro de mi pensamiento.




[Te mentiría acordes][Te mentiría chords]
© LaCuerda.net · notícia legal · privacidade · es · en · pt · contato
DINAMICO