Cifras para Violão e Guitarra » I »Invisible » El anillo del capitán Beto (Tab)

El anillo del capitán Beto
Invisible

Letras, cifras e tablaturas para violão, guitarra, piano, ukulele e baixo

  •   C#/B.                         A  Asus4 A
      Ahí va el Capitán Beto por el espacio,
      con su nave de fibra hecha en Haedo.
      C#m7.      F#m
      Ayer colectivero,
      C#m7.             F#m.     Dmaj7
      hoy amo entre los amos del aire.
    
      C#/B.                       A Asus4 A
      Ya lleva quince años en su periplo;
      su equipo es tan precario como su destino.
      C#m7.           F#m
      Sin embargo un anillo extraño
      C#m7.          F#m.         Dmaj7
      ahuyenta sus peligros en el cosmos.
    
      Reef de Bajo
    
      C#/B.                         A  Asus4 A
      Ahí va el Capitán Beto por el espacio,
    
  • C#/B                             A9  A4  A
    Ahí va el Capitán Beto por el espacio
    C#/B                           A9  A4  A
    con su nave de fibra hecha en Haedo
    C#/B         F#m7/9
    ayer colectivero
    C#m7              F#m7/9    E/D
    hoy amo entre los amos del aire.
    
    Ya lleva quince años en su periplo
    su equipo es tan precario como su destino
    sin embargo un anillo extraño
    ahuyenta los peligros en el cosmos.
    
    Riff.
    
    e-----------------------
    b-----------------------
    g-----------------------
    d------1-2---1----------
    
  •        “Ahi va el capitan beto por el espacio…
    G|-----------4-----------4-4-4-4-4----------------------------
    D|---------------0h2-----------------------------------7-7-7--
    A|-14\-2---2---------2---------------------------7------------
    E|---------------------------------0-5----5--5-----5---------0
    
        …con su nave de fibra hecha en Haedo…
    G|-------4-----------4-4-4-4-4---------------------------
    D|-----------0h2-----------------------------------------
    A|-2---2---------2---------------------------5h7------2-3
    E|-----------------------------0-5----5--5------5---5----
    
        …ayer colectivero, hoy amo entre los amos de aire…
    G|----6-6--6---------4-------------6-6--6----------------9-11
    D|-------------4---4----4---4---------------4--6-7--9-11-----
    A|-4----------4---------------4--4---------4-----------------
    E|-----------------------------------------------------------
    
    G|--------------------------------
    D|-12--12-12--12-12--12-12--12----
    A|--------------------------------
    E|--------
  • +
    ¡Colabora con nosotros!
    Envíanos tu versión de esta canción

Letra de El anillo del capitán Beto
Ahí va el Capitán Beto por el espacio
con su nave de fibra hecha en Haedo
ayer colectivero
hoy amo entre los amos del aire.
Ya lleva quince años en su periplo
su equipo es tan precario como su destino
sin embargo un anillo extraño
ahuyenta los peligros en el cosmos.
Riff.
Ahí va el Capitán Beto por el espacio
la foto de Carlitos sobre el comando
y un banderín de River Plate
y la triste estampita de un santo.
¿Dónde está el lugar
al que todos llaman cielo?
Si nadie viene hasta aquí
a cebarme unos amargos
como en mi viejo umbral.
¿Por qué habré venido hasta aquí?
si no puedo más de soledad
ya no puedo más de soledad.
Su anillo lo inmuniza de los peligros
pero no lo protege de la tristeza
surcando la galaxia del hombre
ahí va el Capitán Beto, el errante.
¿Dónde habrá una ciudad
en la que alguien silbe un tango?
¿Dónde están, dónde están
los camiones de basura
mi vieja y el Café?
Si esto sigue así como así
ni una triste sombra quedará
ni una triste sombra quedará.
Ahí va el Capitán por el espacio
regando los malvones de su cabina
sin brújula y sin radio
jamás podrá volver a la tierra.
Tardaron muchos años hasta encontrarlo
el anillo de Beto llevaba inscripto
un signo del alma.
Espero que le sirva
aguante chacarita jrs y el rey del paty




[El anillo del capitán Beto acordes][El anillo del capitán Beto chords]
© LaCuerda.net · notícia legal · privacidade · es · en · pt · contato
DINAMICO