Cifras para Violão e Guitarra » I »Invisible » Los libros de la buena memoria (Tab)

Los libros de la buena memoria
Invisible

Letras, cifras e tablaturas para violão, guitarra, piano, ukulele e baixo

  • Intro: Em7 Am7 Bm7 CMaj7/G (x 2)
    
    Em7        Am7         Bm7    CMaj7/G
    El vino entibia sueños al jadear
    Em7       Am7         Bm7     CMaj7/G
    desde su boca de verdeado dulzor
    Em7          Am7           Bm7    CMaj7/G
    y entre los libros de la buena memoria
    Em7        Am7           Bm7             CMaj7/G
    se queda oyendo como un ciego frente al mar.
    
    Bm7         Em7    Bm7          Em
    Mi voz le llegará, mi boca también
    Bm7         Em7
    tal vez le confiaré
         Am7        Bm7         CMaj7/G
    que eras el vestigio del futuro.
    
    Rojas y verdes, luces del amor
    prestidigitan bajo un halo de rouge
    
  • e |----------12----------12--------------------------||
    B |--10h12-------12h10-----10h12~--13-----15-15-13---||
    G |--------------------------------------------------||
    D |--------------------------------------------------||
    A |--------------------------------------------------||
    E |--------------------------------------------------||
    
    e |-------------12------------------------||
    B |--12-13-12-13~--12h13h12--10-12-10-12--||
    G |---------------------------------------||
    D |---------------------------------------||
    A |---------------------------------------||
    E |---------------------------------------||
    
    
    e |--12-10-12-10-12/14~-12---10-12-10-12-12---------------------------------||
    B |------------------------------------------------10-10-10--------------10-||
    G |------------------------------------------------------------11-11-11-----||
    D |-------------------------------------------------------------------------||
    A |-------------------------------------------------------------------------||
    
  • Los guiones marcan la mitad de cada compasa si se ubican en el tiempo.
    
    0:08
    
       -           -           -           -
    G|-----------------------------------------------    \
    D|-----------------------------------------------    |
    A|-7-----7-----------------5-----5----3---------0    |
    E|-----------7-5-----5---5-----------------------    |
                                                         |Parte
       -           -           -           -             |  A
         “El vino entibia sueños al jadear…              |
    G|-----------------------------------------------    |
    D|-----------------------------------------------    |
    A|-7-----7--------------------------------------0    |
    E|-----------7-5-----5---5-7----------8----------    /
    
    Repite parte A. Despues:
    
       -           -           -           -
         …se queda oyendo como un ciego frente al mar…
    G|-----------------------------------------------
    D|-----------------------------------------------
    A|-7-----7-----------------5-5-5-5----3-----
  • +
    ¡Colabora con nosotros!
    Envíanos tu versión de esta canción
  • Tutorial
    HD
    Explicado - Como tocar "Los libros de la buena memoria" Invisibles en el bajo eléctrico tutori
    9:43

Letra de Los libros de la buena memoria
El vino entibia sueños al jadear
desde su boca de verdeado dulzor
y entre los libros de la buena memoria
se queda oyendo como un ciego frente al mar.
Mi voz le llegará, mi boca también
tal vez le confiaré
que eras el vestigio del futuro.
Rojas y verdes, luces del amor
prestidigitan bajo un halo de rouge
¿Qué sombra extraña te ocultó de mi guiño
que nunca oíste la hojarasca crepitar?
Pues yo te escribiré, yo te haré llorar
mi boca besará toda la ternura de tu acuario.
RIFF (repite 3 veces y 1 con el riff 2)
>:Arrastra
riff 2
Mas si la luna enrojeciera en sed
o las impalas recorrieran tu estante
no volverías a triunfar en tu alma
yo sé que haría largos viajes por llegar.
Parado estoy aquí, esperándote
todo se oscureció
ya no sé si el mar descansará.
Habrá crecido un tallo en el nogal
la luz habrá tiznado gente sin fe
esta botella se ha vaciado también
que ni los sueños se cobijan del rumor.
Licor no vuelvas ya, deja de reír
no es necesario más
ya se ven los tigres en la lluvia.
fin
Acordes:
Espero les agrade, cualquier cosa manden un mail




[Los libros de la buena memoria acordes][Los libros de la buena memoria chords]
© LaCuerda.net · notícia legal · privacidade · es · en · pt · contato
DINAMICO