Cifras para Violão e Guitarra » I »Inyectores » 7 vidas (Tab)

7 vidas
Inyectores

Letras, cifras e tablaturas para violão, guitarra, piano, ukulele e baixo

  •      A5               C#5
    VI CRECER MIL VECES IDEAS ACA
    F#5          C#5            F#5          A5         E5
    VI SEMBRAR SONRISAS EN ALGUN LUGAR DE ESTA CIUDAD Y TODO YA NO ESTA
          A5               C#5
    VI CAER UN MUNDO A MI ALREDEDOR
    F#5          C#5            F#5          A5         E5
    VI VOLAR AMIGOS HACIA ALGUN LUGAR DEL MAS ALLA ESPERANDOME EN PAZ
          A5               C#5
    CUANDO LA ILUSION ES SOLO DESEPCION
    F#5          C#5            F#5          A5         E5            E5
    CUANDO LOS ESFUERZOS SE AHOGARON EN ESTE DESIRTO DONDE NADA DURO YO GRITE
    
     D5         A5
    NO QUIERO SOBREVIVIR 
    B5                  F#5       D5      A5        E5
       MIENTRAS TRATAN DE EXISTIR    YO PREFERIRIA VIVIR 
    D5         A5
    UNA VIDA CON SENTIDO
    B5                  F#5       D5      A5        E5
    
  • 7 VIDAS
    hace un kulo ke no publiko ni mierda pex, solo eh estado sakando komo un webon
    pero ya pex, fuera de webadas ai sta '7 vidas'......
    oe si tokas full g3,inyectores, mandame un mail pex, 
    solo bajo o teba............ 
    
    INTRO(es guitarra pe webonazos!!!!)
    |---------------------------------------|
    |---------------------------------------|
    |---------------------------------------|
    |------9-----9----------14-14-------14--|
    |--7-7---7-7---7------------------------|
    |-----------------12-12-------12-12-----|
    
    |-------------------------------------------------------------------|
    |-------------------------------------------------------------------|
    |-------------------------------------------------------------------|
    |--------14----14--------14----14------11---11------11---11---------|
    |--12-12----12-----11-11----11-----9-9----9-------------------------|
    |-----------------------------------------------9-9----9------------|
    
    |-------------------------------------------
  • |-----------------|-----------------|-----------------|-----------------|
    |-----------------|-----------------|-----------------|-----------------|
    |-----------------|-----------------|-----------------|-----------------|
    |-----------------|-----------------|-----------------|-----------------|
    |---7---7---7---7-|---7---7---7---7\|---4---4---4---4-|---4---4---4---4-|
    |-5---5---5---5---|-4---4---4---4--\|-2---2---2---2---|-0---0---0---0---|
    
    |-----------------|-----------------|-----------------|-----------------|
    |-----------------|-----------------|-----------------|-----------------|
    |-----------------|-----------------|-----------------|-----9-------9---|
    |-----------------|-----------------|-----9---9---9---|-----------------|
    |---4---4---4---4/|---7---7---7---7-|-7-7-------7---7-|-7-7---7-7-7-----|
    |-2---2---2---2--/|-5---5---5---5---|-----------------|-----------------|
    
    |-----------------|-----------------|-----------------|-----------------|
    |-----------------|-----------------|-----------------|-----------------|
    |-----9-------9---|-----9-------9--\|-----6-------6---|-----6-------6---|
    |-7-------7-----7-|-6-------6-----6\|-4-------4-----4-|-----------------|
    |-----------------|-----------------|-----------------|-4-------4-----4-|
    |-----------------|-----------------|-----------------|-----------------|
    
  • +
    ¡Colabora con nosotros!
    Envíanos tu versión de esta canción

Letra de 7 vidas
VI CRECER MIL VECES IDEAS ACA
VI SEMBRAR SONRISAS EN ALGUN LUGAR DE ESTA CIUDAD Y TODO YA NO ESTA
VI CAER UN MUNDO A MI ALREDEDOR
VI VOLAR AMIGOS HACIA ALGUN LUGAR DEL MAS ALLA ESPERANDOME EN PAZ
CUANDO LA ILUSION ES SOLO DESEPCION
CUANDO LOS ESFUERZOS SE AHOGARON EN ESTE DESIRTO DONDE NADA DURO YO GRITE
NO QUIERO SOBREVIVIR
MIENTRAS TRATAN DE EXISTIR YO PREFERIRIA VIVIR
UNA VIDA CON SENTIDO
MIENTRAS ESTAN DORMIDOS YO QUIERO VIVIR
CRECIO LA IGNORANCIA
EL ODIO NOS CORRUMPIO
LA CODICIA HIZO PEDAZOS EL HONOR DE ESTE PUEBLO
¿Y QUE HAY DEL FUTURO?
TU PRIVACIDAD ESTA EN UN TELEVISOR
TUS PALABRAS ESPIADAS POR EL OJO INQUISIDOR SE VENDEN A UN POSTOR
CUANDO LA ESPERANZA ES AHORA TRAICION
CUANDO TUS SENTIDOS SE AHOGARON EN ESTE DESIERTO DONDE NADA BRILLO YO PENSE
NO QUIERO SOBREVIVIR
MIENTRAS TRATAN DE EXISTIR YO PREFERIRIA VIVIR
UNA VIDA CON SENTIDO
MIENTRAS ESTAN DORMIDOS YO QUIERO VIVIR
VI CRECER MIL VECES IDEAS ACA
VI SEMBRAR SONRISAS EN ALGUN LUGAR DE ESTA CIUDAD Y TODO YA NO ESTA
CUANDO LA ILUSION ES SOLO DESEPCION
CUANDO LOS ESFUERZOS SE AHOGARON EN ESTE DESIRTO DONDE NADA DURO YO GRITE
NO QUIERO SOBREVIVIR
MIENTRAS TRATAN DE EXISTIR YO PREFERIRIA VIVIR
UNA VIDA CON SENTIDO
MIENTRAS ESTAN DORMIDOS YO QUIERO VIVIR TERMINA EN A5
SALUDOS PA LA GENTE DE INYECTORES Y PA TODOS LOS KE ESTAN EN LA MOVIDA
SALUDOS PA MIS PATAS BRYAN MIMI Y EL PATO YA SALE COLISION EN
CAJAMARCA PA ROMPER CRANEOS CUALKIER COSA O ERROR AUNKE CREO KE NO HAY
POR QUE ESTA CORRECTISIMA LA CANCION ESCRIBIR A MI MAIL
SI LES GUSTA G-3 Y QUIEREN LAS TABLADURAS MANDEN UN MAIL PE ARRIBA ESTA
MI DIRRECCION Y SI KIEREN LOS SOLOS DE LAS CANCIONES DEL ROMPECAMINOS




[7 vidas acordes][7 vidas chords]
© LaCuerda.net · notícia legal · privacidade · es · en · pt · contato
DINAMICO