Cifras para Violão e Guitarra » I »Inyectores » Camino al sol (Tab)

Camino al sol
Inyectores

Letras, cifras e tablaturas para violão, guitarra, piano, ukulele e baixo

  •        A D F# B
           A D F# B C E
    
    (a la ves con el punteo)
    
    B|--55------------------------77------------------------|
    G|-----77-66-44-22-44-66-77------77-66-44-22-44-66-77---|
    
    B|--55------------------------77-----------77-----------|
    G|-----77-66-44-22-44-66-77------77-66-44-----77-66-44--|
    
    B|--55------------------------77------------------------|
    G|-----77-66-44-22-44-66-77------77-66-44-22-44-66-77---|
    
    B|--55------------------------77------------------------|
    G|-----77-66-44-22-44-66-77------77-66-44---7--4--------|
    
    
    A                          D        
    ya casi olvido akellos dias en q vivi entre
    
  •   A5                       D5
    |---------------------------------------------------|
    |--------------------------77-----------------------|
    |-99-77-66----------66-77-----77-66----------66-77--|
    |----------99-77-99-----------------99-77-99--------|
    |---------------------------------------------------|
    |---------------------------------------------------|
    
      F#5                      B5
    |---------------------------------------------------|
    |--------------------------77----------77-----------|
    |-99-77-66----------66-77-----77-66-------77-66-----|
    |----------99-77-99-----------------99----------99--|
    |---------------------------------------------------|
    |---------------------------------------------------|
    
      A5                       D5
    |---------------------------------------------------|
    |--------------------------77-----------------------|
    |-99-77-66----------66-77-----77-66----------66-77--|
    
  • +
    ¡Colabora con nosotros!
    Envíanos tu versión de esta canción

Letra de Camino al sol
(a la ves con el punteo)
ya casi olvido akellos dias en q vivi entre
sonrisas en un mundo que nunca fue real
si te preguntas donde estoy me fui a un lugar
en donde no se sufre jamas, y nadie me siguio
hoy me marche con mis dudas al sol
y me entregue al olvido
hoy descanse deje el futuro atras
nadie vino conmigo
recuerdo buscar un especial y apartado
lugar donde el tiempo paro
celebrando la ruptura con el pasado donde
yo le sonrei al dolor y a la desilusion
hoy me escape con mis ansias al mar
y me entregue al olvido
hoy me sente deje la prisa atras
nadie espero por mi hoy
ya casi olvido akellos dias en q vivi entre
sonrisas en un mundo que nunca fue real
si te preguntas donde estoy me fui a un lugar
en donde no se sufre jamas, y nadie me siguio
hoy me marche con mis dudas al sol
y me entregue al olvido
hoy descanse deje el futuro atras
nadie vino conmigo
BUENO AVER SI CORRIEGEN EL PUNTEO (creo)
UN SALUDO PA LE GENTE DEL MARISTAS Y PA LA BASURA DE
'pura perdida', Y PA D-KBZA PESX QUE CREO QUE VAMOS BIEN
Y BAJENSE NUESTRA SONG EN 23 PUNK ..... suicidio ....
Y SALUDO PA MI CULO




[Camino al sol acordes][Camino al sol chords]
© LaCuerda.net · notícia legal · privacidade · es · en · pt · contato
DINAMICO