Cifras para Violão e Guitarra » J »Juan Fernando Velasco » Dejame (Tab)

Dejame
Juan Fernando Velasco

Letras, cifras e tablaturas para violão, guitarra, piano, ukulele e baixo

  • INTRO= D Em D Am D D/F# GMAJ7
           D Em D Am D D/F# GMAJ7 B7
    
    Em                     Am
    Dejame, dejame decir adios,
     D/F#                  GMAJ7
    ayudame, ayudame a borrar tu voz,
      Em                    Am
    enseñame, enseñame a seguir sin ti,
      D/F#                             GMAJ7 B7
    intentare librar mi pecho de este amor.
    
    Hablame, y cuentame que vas a hacer
    con el dolor de esto que no pudo ser,
    olvidame y empieza a caminar sin mi,
    que este amor se nos ha escapado ya.
    
    CORO:
    Em                    Am
    No, tus caricias no saben a miel,
    
  • INTRO= D Em D Am D D7 G
           D Em D Am D D7 G B7
     
    Em                     Am
    Dejame, dejame decir adios,
     D7                  G
    ayudame, ayudame a borrar tu voz,
      Em                    Am
    enseñame, enseñame a seguir sin ti,
      D7                        G          B7
    intentare librar mi pecho de este amor.
    
    Hablame, y cuentame que vas a hacer
    con el dolor de esto que no pudo ser,
    olvidame y empieza a caminar sin mi, 
    que este amor se nos ha escapado ya.
    
    CORO:
    Em                    Am
    No, tus caricias no saben a miel, 
    
  •   D           Em         D            Am
    e-2h3h2-0-----0-----5----2h3h2-0-----------------
    b----------3------0-5-------------3----------1---
    g---------------0-------------------------2--2---
    d---------------------------------------2--------
    a-------------------------------------0-----------
    e-------------0-----------------------------------
    
      D          D7     D9              G       
    e-2h3h2-0-----------5----2h3h2-0----------3------   
    b---------3------1--3-------------3-------3------
    g--------------2------------------------0-------- 
    d------------0------------------------0----------
    a------------------------------------------------ 
    e-----------------------------------3------------
    
      D           Em         D            Am
    e-2h3h2-0-----0-----5----2h3h2-0---------------5--
    b----------3------0-3-------------3---------1--3--
    g---------------0-------------------------2-------
    
  •                 Em                                Am
    e-2h3p0-0-0---|-------5-----------|-2h3p0-0-0---|-------5-----------|
    B-----------3-|-----0-3-0-------0-|-----------3-|-----1-3-1-------1-|
    G-------------|---0-------0---0---|-------------|---2-------2---2---|
    D-------------|-------------------|-------------|-------------------|
    A-------------|-------------------|-------------|-0-----------0-----|
    E-------------|-0-----------0-----|-------------|-------------------|
    
                    D7                                G
    e-2h3p0-0-0---|-------5-----------|-2h3p0-0-0---|-------5-----------|
    B-----------3-|-----1-3-1-------1-|-----------3-|-----0-3-0-------0-|
    G-------------|---2-------2---2---|-------------|---0-------0---0---|
    D-------------|-0-----------0-----|-------------|-------------------|
    A-------------|-------------------|-------------|-------------------|
    E-------------|-------------------|-------------|-3-----------3-----|
    
    
                    Em                                Am
    e-2h3p0-0-0---|-------5-----------|-2h3p0-0-0---|-------5-----------|
    B-----------3-|-----0-3-0-------0-|-----------3-|-----1-3-1-------1-|
    
  •             Em                               Am
    e-2h3p2-0---0-------5--------------2h3p2-0---0------5----------------
    B---------3-0--0----5--0-------0----------3--1---1--3--1-------1-----
    G----------------0------0----0-----------------2---------2---2-------
    D--------------------------------------------------------------------
    A--------------------------------------------0-------------0---------
    E-----------0--------------0-----------------------------------------
    
                D/F#                     D/F#            D/F#
    e-2h3p2-0---0------5-----------2h3p2-0-0----0--------0---------------
    B---------3-3---3--5--3-------3--------3--3---3---3--3---------------
    G-----------2-2-------2---2------------2-2------2----2---------------
    D----------------------------------------------------0---------------
    A----------------------------------------------------0---------------
    E-----------2-----------2--------------2-------------2-----------(BIS)
    
    El intro se repite 2 veces.
    
    Hay que tocar en punteo exceptuando la primera parte de cada segmento...
    
    
  • +
    ¡Colabora con nosotros!
    Envíanos tu versión de esta canción

Letra de Dejame
Dejame, dejame decir adios,
ayudame, ayudame a borrar tu voz,
enseñame, enseñame a seguir sin ti,
intentare librar mi pecho de este amor.
Hablame, y cuentame que vas a hacer
con el dolor de esto que no pudo ser,
olvidame y empieza a caminar sin mi,
que este amor se nos ha escapado ya.
No, tus caricias no saben a miel,
tus olores no me hacen soñar como ayer,
ya, mis palabras no te dan calor,
tus manos ya no tiemblan cuando estas cerca de mi.
Dejame, dejame pedir perdon,
tal vez no di, todo lo que pude dar,
por este amor, que nos ha hecho tanto bien
y me perdi, buscandote en mi corazón
DE NUEVO EL CORO - INTRO Y FIN
Esta canción la saque en un momento muy triste
pensando en la mujer q mas eh amado en la vida y
ahora esta con migo por siempre te amo paolita




[Dejame acordes][Dejame chords]
© LaCuerda.net · notícia legal · privacidade · es · en · pt · contato
DINAMICO