Cifras para Violão e Guitarra » M »Marea » Los mismos clavos (Tab)

Los mismos clavos
Marea

Letras, cifras e tablaturas para violão, guitarra, piano, ukulele e baixo

  • LAm-SOL-LAm-SOL-LAm-SOL-FA
    LAm-SOL-LAm-SOL-LAm-SOL-FA-SOL
    
       LAm            SOL             LAm
    Me dices que me parezco a los caracoles
             SOL               LAm
    me sobra techo, me muero en soles,
             SOL            FA
    tras espesura del chaparrón
      LAm              SOL                LAm
    será que el camino bueno se ha vuelto malo
             SOL                LAm
    o que no quiero pegar ni un palo,
             SOL                FA
    que solo quiero escuchar tu voz.
    
    
    SOL                          Cadd9    SOL           FA
       Que siempre llego a la deshora que marca el corazón
    SOL                        Cadd9    SOL             FA           SOL
    
  •                            FA
    -------------------------------------------------
    -----------------------------------1-------------
    --5-5-7-4---------------------2--2-2----2--2-----
    --5-5-5-5---5-5-3-5-5-7------3--3--3---3--3------
    ----------------------------3--3------3--3-------
    -------------------------------------------------
    
                               FA
    --------------------------------------
    -----------------------------------1--
    --5-5-7-4---------------------2--2-2--
    --5-5-5-5---5-5-3-5-5-7------3--3--3--
    ----------------------------3--3------
    --------------------------------------
    
    
    Aquí va el punteo, si lo tocas rápido es casi identico:
    
    
    
  • -------------------------------------------------
    -1-1-3-0----------------0-----0-----0------------
    -0-0-0-0------0-0-----2---2-----2-----2----------
    ------------2-------3-------3-----3-----3--------
    -3-3-3-3--3-------3------------------------------
    -------------------------------------------------
    
    --------------------------------------------0-1--
    -1-1-3-0----------------0-----0-----0-----0------
    -0-0-0-0------0-0-----2---2-----2-----2----------
    ------------2-------3-------3-----3-----3--------
    -3-3-3-3--3-------3------------------------------
    -------------------------------------------------
    
    
    -----------8-7-5-------5-------------------------
    -----5-6-8-------8-5-8---5-5-5-------------------
    -5-7---------------------------------------------
    -------------------------------------------------
    -------------------------------------------------
    
  • +
    ¡Colabora con nosotros!
    Envíanos tu versión de esta canción

Letra de Los mismos clavos
Me dices que me parezco a los caracoles
me sobra techo, me muero en soles,
tras espesura del chaparrón
será que el camino bueno se ha vuelto malo
o que no quiero pegar ni un palo,
que solo quiero escuchar tu voz.
Que siempre llego a la deshora que marca el corazón
y que, cuando estamos a solas, molesta el caparazón, el caparazón.
Me dicen que tus braguitas revolotean
que lo hacen sólo pa que las vea
que llevan alas de desamor,
será que las ensuciamos tan malamente
que los colchones son mala gente,
que siempre quieren tener razón.
Que siempre llego a la deshora que marca el corazón
y que, cuando estamos a solas, molesta el caparazón, el caparazón.
mi casa está donde estás tú
los mismos ojos, la misma luz
mi casa está donde estás tú
los mismos clavos, la misma cruz
los mismos clavos, el mismo ataúd.




[Los mismos clavos acordes][Los mismos clavos chords]
© LaCuerda.net · notícia legal · privacidade · es · en · pt · contato
DINAMICO