Cifras para Violão e Guitarra » M »Molotov » Frijolero (Tab)

Frijolero
Molotov

Letras, cifras e tablaturas para violão, guitarra, piano, ukulele e baixo

  •      Am
    yo ya estoy hasta la madre
             E
    de que me pongan sombrero
             Dm
    escucha entonces cuando digo
           Am
    no me llames frijolero
    
    
             Am
    y aunque exista algun respeto
          E
    no metamos las narices
            Dm
    nunca inflemos la moneda
             Am
    haciendo guerra a otros paises
    
    
    
  • E|---------------------------------||
    B|---------------------------------||
    G|---------------------------------||
    D|---------------------------------||
    A|----10-11-12-12-12-12-12-10-8----||
    D|-12---------------------------12-||
    
    Dm-Am-E-Am-x2
    
    Los cambios en el resto de la cancion son : Am-E-Dm-Am
    Los cambios del coro son: Dm-Am-E-Am-Dm-Am-E-Am
    
    Yo ya estoy hasta la madre 
    De que me pongan sombrero
    Escuche entonces cuando digo
    No me llames frijolero
    
    De que exista algun respeto
    No metamos las narices
    Nunca inflamos la moneda
    
  • B:----------------------------|
    G:---1--2--3--3-3--3-3--1-----|
    D:-3----------------------4-3-|
    A:----------------------------|
    E:----------------------------|
    
    
    e:---5----5----5----5-----5----5----5----5--------------------------5----5----5----5-|
    B:---6----6----6----6-----5----5----5----5-----3----3----3----3-----5----5----5----5-|
    G:---7----7----7----7-----6----6----6----6-----4----4----4----4-----6----6----6----6-|
    D:---7----7----7----7-----7----7----7----7-----5----5----5----5-----7----7----7----7-|
    A:-5-5--5-5--5-5--5-5-----7----7----7----7-----5----5----5----5-----7----7----7----7-|
    E:----------------------5-5--5-5--5-5--5-5---3-3--3-3--3-3--3-3---5-5--5-5--5-5--5-5-|
    
    
    e:---5----5----5----5-----5----5----5----5------------------------------------------|
    B:---6----6----6----6-----5----5----5----5-----3----3----3----3----3----3----3----3-|
    G:---7----7----7----7-----6----6----6----6-----4----4----4----4----4----4----4----4-|
    D:---7----7----7----7-----7----7----7----7-----5----5----5----5----5----5----5----5-|
    A:-5-5--5-5--5-5--5-5-----7----7----7----7-----5----5----5----5----5----5----5----5-|
    
  • en las anteriores transcripciones esta mal el intro
    chequenlo y no suena igual que la cancion aqui les mando
    uno que si es correcto, los acordes de las pasadas si estan
    correctos; tambien mando el intro de la parte del acordeon
    
    esto es la guitarra
    e--------------------------
    b--------------------------
    g--------------------------
    d---5-6-7-7-7-7-7-5--------
    a-7-----------------8-7----
    e--------------------------
    
    y lo del acordion va asi
    
    e-12-10-12-10-12-10-8-7-8-7-8-10-8-7-8-7-8-7---------
    b--------------------------------------------8-8/10--(el 10 es
    g---------------------------------------------------- vibrato)
    d----------------------------------------------------
    a----------------------------------------------------
    e----------------------------------------------------
    
    -12-10-12-10-12-10-8-7-8-7-8-10-8-7-8-7-8-7-8-7-8-7-8-7--------
    --------------------------------------------------------8-8/10-
    -----------------------------------------------------(el 10 es-
    ---------------------
  • E--------------------------12-10-12-10-12-10------------------10------
    B---------------------------------------------13-12-13-12-13----13-10-
    G---0-1-2-2-2-2-0-----------------------------------------------------
    D-2----------------3-2------------------------------------------------
    A---------------------------------------------------------------------
    E---------------------------------------------------------------------
    
    se repite el acordeon.
    
    despues es algo asi Am Dm Am E7 para entrar asi...
    
      Am
    yo ya estoy hasta la madre
             E7
    de que me pongan sombrero
             Dm
    escucha entonces cuando digo
           Am
    no me llames frijolero
    
    
  • Intro
    E|------------|-----------|
    A|--77--------|------8-7--|
    D|-----5-7-77-|-77-5------|
    G|------------|-----------|
    
    E|----5------|----------|---7-|-5---5---|-5-5---5-|
    A|--5---5----|---7---57-|-7---|---7---7-|-----7---|
    D|--------57-|-7---7----|-----|---------|---------|
    G|-----------|----------|-----|---------|---------|
    
    E|------------|-5---------|---7---7-|
    A|--5---------|---7---757-|-7---7---|
    D|----7---757-|-----7-----|---------|
    G|------7-----|-----------|---------|
    
    ------------------|---5---5--|
    -7----------------|--7-7-7---|
    ---7h9-------10-9-|-7---7----|
    -------7h9-7------|----------|
    
    
    Yo ya estoy
    E|--5-----|---------------|---5-------|-----5------|
    A|----7---|-5-7--5-7--575-|-5---5-----|---7---575--|
    D|------7-|---------------|-------757-|-7----------|
    G|--------|---------------|-----------|------------|
    
    Y aunque
    E|------5-|---------------|---5-------|-----5------|
    A|----7---|-5-7--5-7--575-|-5---5-----|---7---575--|
    D|--7-----|---------------|-------757-|-7----------|
    
  • Por fin, el bajo de frijolero, si se llegan a confundir al sacarlo, 
    escuchen bien la cancion, ya que esta completo y muy exacto.
    
    INTRo
    G|------------------------|
    D|------------------------|
    A|------------------------|
    E|-0-3-4-5--5-5--5-3-1-0--|
    
    G|-------------------------------------------------------|
    D|----------5-6-7-------------------------------7--------|
    A|-5-----5---------7-----5-6-7-----7---------7-----7-6-5-|
    E|----5---------------5---------7-----7-8-5--------------|
    
    G|-------------------------------------------------------------------|
    D|-------5-6-7----------------------------------------12p14-13-12-10-|
    A|----5---------7-----5-6-7-----7-----7-----7--13p14-----------------|
    E|-5---------------5---------7-----7-----7---------------------------|
    
    G|----------------------|
    D|-7------------7-------|
    A|----7-----7------7----|
    E|-------5------------5-|
    
     VERSO
    G|-------------------------------------------------|
    D|----------------------------------7
  • aca va una version mejor que la anterior:
    
    armonica en C
    intro
    (6)6(6)6(6)6
    
    (5)5(5)5(5)6
    
    (5)5(5)5(5)5 -4(4)
    
    (6)6(6)6(6)6
    
    (5)5(5)5(5)6
     
    (5)5(5)5(5)5  (5)5(5)5(5)5 (5)5 4 (4)
    
    primera estrofa
    (5)muchas veces
    (6)muchas veces
    (4)4 (4)4(4)4 (5)5 (5)5(5)5
    
    estribillo
    (6)6(6)6(6)6
    (5)5(5)5(5)6
    (5)5(5)5(5)5 -4(4)
    (5)5(5)5(5)5(5)5(4)
    es muy facil y si tiene dudas o felicitaciones escribanme a felnegro@hotmail.com
  • Un saludo a la raza de hermosillo, y al COBACH Reforma
    
    Yo no tengo acordeon, pero asi va, solo es cuestion de escucharlo bien
    INTRO Y CORO
    
    E   E  E                                                                  
      D   D   D                 D                                             
                    C   C   C         C    C   C    C                         
                      B   B              B  B    B                            
                                                        A                     
    ------------------------------------------------------------------------- 
    
    E   E   E                                                                   
      D   D    D                D                                               
                    C   C   C         C   C  C  C   C   C   C                   
                      B   B             B  B  B   B   B   B    B                
                                            
                                              
  • +
    ¡Colabora con nosotros!
    Envíanos tu versión de esta canción
  • Tutorial
    HD
    Como tocar "Frijolero" de Molotov - Tutorial Guitarra (HD)
    9:13

Letra de Frijolero
yo ya estoy hasta la madre
de que me pongan sombrero
escucha entonces cuando digo
no me llames frijolero
y aunque exista algun respeto
no metamos las narices
nunca inflemos la moneda
haciendo guerra a otros paises
te pagamos con petroleo
o intereses nuestra deuda
mientras tanto no sabemos
quien se queda con la feria
aunque nos hagan la fama
de que somos vendedores
de la droga que sembramos
ustedes son consumidores
Don't call me gringo 'you fucking beaner'
don't call me gringo 'you beaner'
No me digas beaner mr puñetero
o te sacare un susto por racista culero
no me digas frijolero pinche gringo puñetero
(chingao)
ingles
podras imaginarte desde afuera
ser un mexicano cruzando la frontera
pensando en tu familia mientras pasas
dejando a todo lo que conoces atras
si tuvieras tu que esquivar las balas
de unos cuantos gringos rancheros
les seguiras diciendo:
' wouldnt you be a wet back si tuvieras que empezar de ceros?'
ingles




[Frijolero acordes][Frijolero chords]
© LaCuerda.net · notícia legal · privacidade · es · en · pt · contato
DINAMICO