Cifras para Violão e Guitarra » M »Molotov » Puto (Tab)

Puto
Molotov

Letras, cifras e tablaturas para violão, guitarra, piano, ukulele e baixo

  • versos
    e-----------------------------------|
    B-----------------------------------|
    G------5--5-------------------------|
    D------5--5----5-5---7--9--10-------|
    A------3--3----5-5---7--9--10-------|
    E--------------3-3---5--7---8-------|
    
    Amo a maton
    e--------------------|
    B--------------------|
    G-----5-------5------|
    D-----5---5---5------|
    A-----3---5---3------|
    E---------3----------|
    
    y que kiere este hijo..
    e--------------------|
    B--------------------|
    G-----5---4---5------|
    D-----5---4---5------|
    A-----3---2---3------|
    E--------------------|
    
    final
    e-------------------------------------------------------|
    B-------------------------------------------------------|
    G----------------------------------------9-------------5|
    D--5--7--9--10---5--7--9--10------5--10--9--10--10---5-5|
    A--5--7--9--10---5--7--9--10------5--10--7--10--10---5-3|
    E--3--5--7---8---3--5--7---8------3---8-----8---8----3--|
    (esta parte se repite 3 veces)    FINAL
    
    LETRA:
    
    Que mun machino a mun machino marica nena mas b
  • Puto
    __________________
    
    verso
    ------------------------------------------------------------------
    ------------------------------------------------------------------
    -------5--5------5------------2----4------------------------------
    -------5--5------5--5--5----2----4--------------------------------
    -------3--3------3--5--5----0----2--------------------------------
    -----------------------3--3---------------------------------------
    
    coro
    ------------------------------------------------------------------
    ------------------------------------------------------------------
    -------5-5--5----4-4---5------------------------------------------
    -------5-5--5----4-4---5------------------------------------------
    -------3-3--3----2-2---3------------------------------------------
    ------------------------------------------------------------------
    
    final
    ------------------------------------------------------------------
    --------------------------------------------------------------
  • e|----------------------------------------------------------
    B|----------------------------------------------------------
    G|----------------------------------------------------------
    D|----------------------------------------------------------
    A|--3----3----3------------0----2---------------------------
    E|-----------------3--3-------------------------------------
    
    Amo a matón Matarile al maricón x2
    e|----------------------------------------------------------
    B|----------------------------------------------------------
    G|----------------------------------------------------------
    D|----------------------------------------------------------
    A|---3--------3-----3-----2------3--------------------------
    E|-------3--------------------------------------------------
    
    Este es un son dedicado a Mickey … x3
    e|----------------------------------------------------------
    B|----------------------------------------------------------
    G|-------------------------------------3--------------------
    D|----------------5--------------3--------------------------
    
  • bueno es mi primera transcripcion espero que les guste sela
    dedico a neto del señor del costal y a jamel y a su hermano
    y puto de elias que me enseño a tocar el bajo
    dudas a vmm_ale@hotmail.com att aries bar
    lla mero les tengo la de prende la luz de plastiko que se la boy
    a dedicar a julieta que la amo
    
    (0:24)
    G|----------------
    D|---------------- (x7)
    A|3--3-------0-2--
    E|------3--5------
    
        Amo a maton...
    G|----------------
    D|----------------
    A|--3---------3---
    E|-------3--------
    
    Y que quiere este hijo de puta...
    G|----------------
    D|----------------
    A|--3-----2---3---
    E|----------------
    
    Amo a maton...
    G|----------------
    D|----------------
    A|--3---------3---
    E|--------3-------
    
    Y que quiere...
    G|----------------
    D|----------------
    A|--3-----2---3---
    E|----------------
    
    Este es un son dedicado...
    G|------3-3/5--5-4-2----------
    D|------3-3/5--5-4-3----------
    A|--3-----------------2-2/3---
    E|----------------------------
    
    Esta parte tiene pop (jalas la cuerda hacia arriba)
    y slap (
  • Esta rola es puro bajo, si no sabes slap y pop
    puedes tocarlo normal y queda bien.
    
    (0:24)
    G|----------------
    D|---------------- (x7)
    A|3--3-------0-2--
    E|------33-3------
    
                       Amo a maton...
    G|-------------------------------
    D|-------------------------------
    A|--3--3-------0-2-3---------3---
    E|--------33-3-----------3-------
    
    Y que quiere este hijo de puta...
    G|----------------
    D|----------------
    A|--3-----2---3---
    E|----------------
    
    Amo a maton...
    G|----------------
    D|----------------
    A|--3---------3---
    E|--------3-------
    
    Y que quiere...
    G|----------------
    D|----------------
    A|--3-----2---3---
    E|----------------
    
    Este es un son dedicado...
    G|------3-3/5--5-4-2----------
    D|------3-3/5--5-4-3----------
    A|--3-----------------2-2/3---
    E|----------------------------
    
    Esta parte tiene pop (jalas la cuerda hacia arriba)
    y slap (golpeas el ultimo traste con el pulgar):
    POP                  SLAP
    G|--3h5-3h5-3h5--    G|------------
    D|---------------    D|------------    (x3)
    A
  • Estrofa:
    
    -------------
    -------------
    3-3---------2
    ----3-3-3-5--
    
    "Amoo a maton..."
    
    ------
    ------
    3---3-
    --3---
    
    "Y que quiere ese hijo.."
    
    -----
    -----
    3-2-3
    -----
    
    "Este es un show.." aqui dos bajos, uno hace la base
    
    --5-----
    --------
    3-------
    ---3-3-3
    
    Esta la melodia
    
    ---15/16---------------------
    15 se queda esta nota pulsada
    -----------------------------
    -----------------------------
    
    ---15/14---------------------
    15 se queda esta nota pulsada
    -----------------------------
    -----------------------------
    
    15/16-17
    ------17
    --------
    --------
    
    
    Estribillo con slap
    
    --3h5---3h5---3h5---------
    --------------------------
    3-----3-----3------0-1-2-3
    --------------------------
    
    
    luego se repiten cosas que ya he puesto
    
    Final, el slap de antes pero acamos con esto:
    
    -----------------------------------------5--
    ----------------------------2---------------
    0-1-2-3-0-1-2-3-0-1-2-3---3---3--3-3-3-3---3
    ------------------------3-------------------
  • Pues a peticion de la banda ahi les dejo esta super rola de Molotov que
    la disfruten para dudas o comentarios mi correo es
    jacko_24horas@hotmail.com
    
    f=golpe con las 2 manos
    t(triplets)=redoble con las 2 manos
    
    Puto - Molotov
    
      Intro (0:23)
      |------x10-------|
    C |----------------|----------------|X---------------|----------------|
    H |----------------|----------------|--x-x-x-x-x-x-o-|x-x-x-x-x-x-x-o-|
    S |----------------|--------------f-|----o-------o---|----o-------o---|
    B |----------------|----------------|o------oo-o---o-|o------oo-o---o-|
      |1e+a2e+a3e+a4e+a|1e+a2e+a3e+a4e+a|1e+a2e+a3e+a4e+a|1e+a2e+a3e+a4e+a|
    
    C |----------------|----------------|X---------------|----------------|
    H |x-x-x-x-x-x-x-o-|x-x-x-x-x-x-x-o-|--x-x-x-x-x-x-o-|x-x-x-x-x-x-x-o-|
    S |----o-------o---|----o-------o---|----o-------o---|----o-------o---|
    B |o------oo-o---o-|o------oo-o---o-|o------oo-o---o-|o------oo-o---o-|
      |1e+a2e+a3e+a4e+a|1e+a2e+a3e+a4e+a|1e+a2e+a3e+a4e+a|1e+a2e+a3e+a4e+a|
    
      Coro (0:40)
    C
  • +
    ¡Colabora con nosotros!
    Envíanos tu versión de esta canción
  • Tutorial
    HD
    Como tocar PUT0 en guitarra ✪ Molotov ✔️ TAB
    ACORDES
    TUTORIAL
    ROCKSTARS
    4:42
  • Tutorial
    HD
    Como tocar PUTΩ en guitarra - Molotov [Tutorial Somos Posers]
    4:42

Letra de Puto
Amo a matón Matarile al maricón x2
Este es un son dedicado a Mickey … x3
Puto! le faltan tanates al.. puto! X6 Amo a matón Matarile al maricón x2
puto! puto! puto! puto! X8 Riff x2
Riff final




[Puto acordes][Puto chords]
© LaCuerda.net · notícia legal · privacidade · es · en · pt · contato
DINAMICO