Cifras para Violão e Guitarra » M »Música Religiosa » Pescador de Hombres (Tab)

Pescador de Hombres
Música Religiosa

Letras, cifras e tablaturas para violão, guitarra, piano, ukulele e baixo

  • A D A D
    A E F#m E D E7
    
    
       A E                F#m F#m7
    1. Tú has venido a la orilla,
           Bm     Bm7               E7
    no has buscado ni a sabios ni a ricos,
             A       E7        A    A7
    tan sólo quieres que yo te siga
    
    
    
      D  E                     A     F#
    Señor, me has mirado a los ojos,
         Bm  E7            A        A7
    sonriendo has dicho mi nombre,
            D        E       A     F#
    en la arena he dejado mi barca,
            D E7             A    D
    
  • G   D                Em
     tú  has venido a la  orilla
           C        Am                D
    no has  buscado   ni a sabios ni a  ricos
             G       D          Em
    tan solo  quieres que yo te   siga
    C     D                   G    Em
    Señor, me has mirado a los ojos
    C        D            G      G7
    sonriendo has dicho mi nombre,
            C   D7             G     Em
    en la arena   he dejado mi  barca
            C  D              G
    junto a ti  busacaré otro mar.
    
    
    G   D                 Em
     Tú  sabes bien lo que  tengo,
            C   Am              D
    en mi barca   no hay oro ni  espadas
    
  •    D - A7      D - D7
    e-0-------0-1-0--------------/
    B------3----------3 ---1-1---/
    G----------------------------/
    D----------------------------/
    A----------------------------/
    E----------------------------/
      Tu, has venido a la orilla
    
       G               A7
    e----0-1-1------0-1-0-1------------/
    B-3---------------------3-3--------/
    G----------------------------------/
    D----------------------------------/
    A----------------------------------/
    E----------------------------------/
    no has vuscado ni a sabios ni a ricos
    
      D -  A7      D - D7
    e-------0-0---------0-1------/
    
  • e ----8---6--8---10--8---6--5--5--6---8--10--10--10--10---8--10--6--6-
    B ----10--8--10--11--10--8--6--6--8--10--11--11--11--11--10--11--8--8-
    G --------------------------------------------------------------------
    
    e ----3---5---6---8-----8----8---10--6---5---5--
    B ----5---6---8---10---10---10---11--8---6---6--
    G ----------------------------------------------
    
    e ----1---10---10---12----13---12---10----8-----8----8---6---6----8---10---8----6---5---5-
    B ----3---11---11---13----15---13---11---10----10---10---8---8---10---11---10---8---6---6-
    G ----------------------------------------------------------------------------------------
    
    E  ---1--1--10--10--10--12--13--12--10---8---8---8--5--6--6---8--10--8---6-6--
    B  ---3--3--11--11--11--13--15--13--11--10--10--10--6--8--8--10--11--10--8-6--
    G ----------------------------------------------------------------------------
    
    
    
                         INTRO: PIANO.
    
    
  • PESCADOR DE HOMBRES (Armonica en Do)
    
    (4)5(5)5(4)44
    
    (4)5(5)(5)
    
    (5)(5)5(5)(4)(4)
    
    44(4)55
    
    5(5)(4)44
    
    
    
    Señor me has mirado...
    
    
    4(6)L(6)(7)7(7)(6)66
    
    
    (5)5(5)(5) 6(6)6(5)55
    
    
    
    44(6)L(6)L(6)(7)7(7)(6)66
    
    (5)5(5)(5) (4)5(5)L(4)4
  • +
    ¡Colabora con nosotros!
    Envíanos tu versión de esta canción
  • Tutorial
    pescador de hombres tutorial con guitarra acustica
    7:27

Letra de Pescador de Hombres
tú has venido a la orilla
no has buscado ni a sabios ni a ricos
tan solo quieres que yo te siga
Señor, me has mirado a los ojos
sonriendo has dicho mi nombre,
en la arena he dejado mi barca
junto a ti busacaré otro mar.
Tú sabes bien lo que tengo,
en mi barca no hay oro ni espadas
tan solo redes y mi trabajo
Señor, me has mirado a los ojos
sonriendo has dicho mi nombre,
en la arena he dejado mi barca
junto a ti busacaré otro mar.
Tú necesitas mis manos
amor que quiera seguir amando
Señor, me has mirado a los ojos
sonriendo has dicho mi nombre,
en la arena he dejado mi barca
junto a ti busacaré otro mar.
Tú pescador de otros lagos
ansia eterna de almas que esperan
amigo bueno que sí me llamas.
Señor, me has mirado a los ojos
sonriendo has dicho mi nombre,
en la arena he dejado mi barca
junto a ti busacaré otro mar.
MG
Saludos!




[Pescador de Hombres acordes][Pescador de Hombres chords]
© LaCuerda.net · notícia legal · privacidade · es · en · pt · contato
DINAMICO