Cifras para Violão e Guitarra » N »No Te Va Gustar » A las 9 (Tab)

A las 9
No Te Va Gustar

Letras, cifras e tablaturas para violão, guitarra, piano, ukulele e baixo

  • INTRO: D,Am,Em y D
    
    
    D                               Am
    ¿Cómo que tienes que irte? Si recién te vi llegar
            Em                       D
    Solo me das en un rato, lo que tenes para dar
    D                               Am
    Espero sea una broma, aunque en realidad lo entiendo
          Em                         D
    No queres sinceridad, ni que te siga mintiendo
    
    Estribillo:
    
    Em         G           D   C         Em             D
    Sé que te vas a las nueve, sé que me muero a las diez
    
    
                             Am
    Sabes, estoy de tu lado, no me pidas que eso
    
  • INTRO: D,Am,Em y D
    
    
    D                               Am
    ¿Cómo que tienes que irte? Si recién te vi llegar
            Em                       D
    Solo me das en un rato, lo que tenes para dar
    D                               Am
    Espero sea una broma, aunque en realidad lo entiendo
          Em                         D
    No queres sinceridad, ni que te siga mintiendo
    
    Estribillo:
    
    Em         G           D   C         Em             D
    Sé que te vas a las nueve, sé que me muero a las diez
    
    
                             Am
    Sabes, estoy de tu lado, no me pidas que eso
    
  • D                           Am
    ¿Cómo que tenés que irte? si recién te vi llegar
    Em                                D
    Solo me das en un rato lo que tenés para dar
       Am                       Em
    Espero sea una broma, aunque en realidad lo entiendo
    D                                  Am
    No querés sinceridad, ni que te siga mintiendo.
    
    
    Estribillo:
    Em        G           D  C  Em          G            D
    Sé que te vas a las nueve, sé que me muero a las diez
    
    
    D                          Am
    Sabes  estoy de tu lado, no me pidas mas que eso,
    Em                                D
    Cuando la noche se apague vas a darme un solo beso
              Am                  Em
    
  • Intro: D Am Em D
    
    Tambien pueden tocar:
    
    D(e -0-2-3-2-0) Am(e -0-2-3-2-0) Em(e -0-2-3-2-0) D(e -0-2-3-2-0)
    
    D                           Am
    ¿Cómo que tenés que irte? si recién te vi llegar
    Em                                D
    Solo me das en un rato lo que tenés para dar
    D                          Am
    Espero sea una broma, aunque en realidad lo entiendo
    Em                              D
    No querés sinceridad, ni que te siga mintiendo.
    
    
    Estribillo:
    Em       G         D         C            Em       D
    Sé que te vas a las nueve, sé que me muero a las diez
    
    
  • ----------------------- -----------------------------/
    --------------------------- -------------------------/
    -------7-7-7-7-7-7--------5-4-----2/4-2--------------/
    -----------------------------------------4/5-4-------/
    -------------------------------------------------5---/
    -----------------------------------------------------/
    
    ------------------------------------------------------/
    ---7/8-7--------7/8-7---------------------------------/
    ----------7------------7----7/9-7---------------------/
    ------------------------------------------------------/
    ------------------------------------------------------/
    ------------------------------------------------------/
    
    --------------------------------------------------------/
    --------------------------------------------15-----15--/
    ---7/9---9/11---11/12----12/14---14-14-14/16----16-------/
    --------------------------------------------------------/
     -------------------------------------------------------/
    --------------------------------------------------------/
    
  • --------
    s - slide
    
    Duración de las notas:
    ----------------------
       r = Redonda
       b = Blanca
       n = Negra
       c = Corchea
       . = Mitad de la figura que antecede
          (ej.1: b. dura una Blanca y una Negra)
          (ej.2: n. dura una Negra y una Corchea)
          (ej.3: n.n dura dos Negras y una Corchea)
    
    
    E |----------------------------|-------|----------------------------|
    B |----------------------------|-------|----------------------------|
    G |-----7--7--7--7--7--7--7----|--7----|--5--------4--------2s-4----|
    D |----------------------------|-------|----------------------------|
    A |----------------------------|-------|----------------------------|
    
  • +
    ¡Colabora con nosotros!
    Envíanos tu versión de esta canción

Letra de A las 9
¿Cómo que tenés que irte? si recién te vi llegar
Espero sea una broma, aunque en realidad lo entiendo
No querés sinceridad, ni que te siga mintiendo.
Estribillo:
Sé que te vas a las nueve, sé que me muero a las diez
Sabes estoy de tu lado, no me pidas mas que eso,
Cuando la noche se apague vas a darme un solo beso
Tengo la mente cansada y mi piel se va con vos
Ya me explicaste mil veces, lo que veo es lo que sos.
Sé que te vas a las nueve, sé que me muero a las diez
No puedo dar garantías
Si se apaga cada día, no creo que pueda esperar.
Yo te lo quise hacer fácil, la distancia no es el fin
Pero no quiero entregarme y que algo muera en mi
Ya se, no tenes idea, vos te vas y yo me quedo
Sé que te vas a las nueve, sé que me muero a las diez
Sé que te vas a las nueve, yo sé que me muero a las diez
A las nueve, me muero a las diez...
ATTE: Facu S.(Ned Flanders)




[A las 9 acordes][A las 9 chords]
© LaCuerda.net · notícia legal · privacidade · es · en · pt · contato
DINAMICO