Cifras para Violão e Guitarra » N »No Te Va Gustar » A las nueve (Tab)

A las nueve
No Te Va Gustar

Letras, cifras e tablaturas para violão, guitarra, piano, ukulele e baixo

  • D                           Am
    ¿Cómo que tenés que irte? si recién te vi llegar
    Em                                D
    Solo me das en un rato lo que tenés para dar
    D                          Am
    Espero sea una broma, aunque en realidad lo entiendo
    Em                              D
    No querés sinceridad, ni que te siga mintiendo.
    
    
    Estribillo:
    Em       G         D         C            Em       D
    Sé que te vas a las nueve, sé que me muero a las diez
    
    
    D                          Am
    Sabes  estoy de tu lado, no me pidas mas que eso,
    Em                                D
    Cuando la noche se apague vas a darme un solo beso
    D                          Am
    
  • C                               Gm
    ¿Cómo que tenés que irte? si recién te vi llegar
         Dm                          C
    Solo me das en un rato lo que tenés para dar
    C                          Gm
    Espero sea una broma, aunque en realidad lo entiendo
          Dm                         C
    No querés sinceridad, ni que te siga mintiendo.
    
    Dm         F          C     A#         Dm         C
    Sé que te vas a las nueve, sé que me muero a las diez
    
    C                              Gm
    Sabes  estoy de tu lado, no me pidas mas que eso,
              Dm                      C
    Cuando la noche se apague vas a darme un solo beso
    C                             Gm
    Tengo la mente cansada  y mi piel se va con vos
             Dm                          C
    Ya me explicaste mil veces, lo que veo es lo que sos.
    
  • Intro: D - Am - Em
    
    D                               Am
    ¿Cómo que tenés que irte? Si recién te vi llegar
    Em                                D
    Solo me das en un rato, lo que tenés para dar
    D                                Am
    Espero sea una broma, aunque en realidad lo entiendo
    Em                                D
    No querés sinceridad, ni que te siga mintiendo
    
    E         G             D
    Sé que te vas a las nueve.
    C         E              D
    Sé que me muero a las diez.
    
    D                               Am
    Sabes estoy de tu lado, no me pidas más que eso
    Em                               D
    Cuando la noche se apague vas a darme un solo beso
    
  • e-----------------------------2-2-3-2---2-2-3-2-----------
    B-3-(8 veces)-1-0--------------------3---------3--3/5-3---
    G-----------------2/4-2-----------------------------------
    D-----------------------5/7-4-----------------------------
    A---------------------------------------------------------
    E---------------------------------------------------------
    
    e-0-0-2-2-3-3-5-5-7-7-8-10-8-10---17--17--------17--17----
    B-----------------------------------15-----15-15--15------
    G---------------------------------------------------------
    D---------------------------------------------------------
    A---------------------------------------------------------
    E---------------------------------------------------------
    
    e-------17/19-19-19-17-17-17-15-15-15/14-14-14-15-14------
    B--15-15--------------------------------------------15-17-
    G---------------------------------------------------------
    D---------------------------------------------------------
    A---------------------------------------------------------
    E---------------------------------------------------------
    
  • e-------------------------------------
    B------------------------------------
    G-------------------------------------
    D-12(8 veces)-10-9--7-9-7-5-7-4-------
    A-------------------------------5------
    E---------------------------------------
    
    e----------------------------------------------------
    B----------------------------------------------------
    G-11-12-11----11-12-11-------------------------------
    D----------12----------12--12s14-12------------------
    A----------------------------------------------------
    E----------------------------------------------------
    
    e----------------------------------------------------
    B----------------------------12-12-13-13-15-15-13-15-
    G----------11-11-12-12-14-14-------------------------
    D-12-14-14-------------------------------------------
    A----------------------------------------------------
    E----------------------------------------------------
    
  • +
    ¡Colabora con nosotros!
    Envíanos tu versión de esta canción
  • Tutorial
    HD
    Como tocar a las Nueve NTVG en Guitarra (HD)
    Tutorial Acordes
    5:40
  • Tutorial
    HD
    Como tocar - A las Nueve - No te va gustar - SOLO
    9:17
  • Tutorial
    HD
    Como tocar - A las Nueve - No te va gustar VERSO Y ESTRIBILLO ,Parte 1
    3:57
  • Tutorial
    HD
    Explicado - Como tocar "A las nueve" de No te va gustar en el bajo tutorial#91
    11:01

Letra de A las nueve
¿Cómo que tenés que irte? si recién te vi llegar
Espero sea una broma, aunque en realidad lo entiendo
No querés sinceridad, ni que te siga mintiendo.
Estribillo:
Sé que te vas a las nueve, sé que me muero a las diez
Sabes estoy de tu lado, no me pidas mas que eso,
Cuando la noche se apague vas a darme un solo beso
Tengo la mente cansada y mi piel se va con vos
Ya me explicaste mil veces, lo que veo es lo que sos.
Sé que te vas a las nueve, sé que me muero a las diez
No puedo dar garantías
Si se apaga cada día, no creo que pueda esperar.
Yo te lo quise hacer fácil, la distancia no es el fin
Pero no quiero entregarme y que algo muera en mi
Ya se, no tenes idea, vos te vas y yo me quedo
Sé que te vas a las nueve, sé que me muero a las diez
Sé que te vas a las nueve, sé que me muero a las diez
A las nueve, me muero a las diez...




[A las nueve acordes][A las nueve chords]
© LaCuerda.net · notícia legal · privacidade · es · en · pt · contato
DINAMICO