Cifras para Violão e Guitarra » O »La Oreja de Van Gogh » Jueves (Tab)

Jueves
La Oreja de Van Gogh

Letras, cifras e tablaturas para violão, guitarra, piano, ukulele e baixo

  • Intro: F / C / Dm / Bb / C
    
    C             F
    Si fuera más guapa y un poco más lista,
                  Bb
    si fuera especial, si fuera de revista
                  C                  Bb
    tendría el valor de cruzar el vagón
                         F
    y preguntarte quién eres.
                  F
    Te sientas enfrente y ni te imaginas
                  Bb
    que llevo por tí mi falda más bonita
                   C                   Bb
    y al verte lanzar un bostezo al cristal
                     F
    se inundan mis pupilas.
    
                    Dm
    
  • Intro: F-C-Dm-Bb-C
    
                  F
    Si fuera más guapa,  y un poco más lista
                  Bb
    Si fuera especial, si fuera de revista
                  C                  Bb
    Tendría el valor de cruzar el vagón
                        Fsus4--F       Fsus4
    Y preguntarte quien   e----res.
    
                   F
    Te sientas en frente, y no te imaginas
                  Bb
    Que llevo por ti mi falda más bonita
                   C                    Bb
    Y al verte lanzar un bostezo al cristal
                     F9-F    C
    Se inundan mis pupilas.
    
    
  • Intro: RE LA SIm Sim/Fa# SOL LA
    
                  RE
    Si fuera más guapa y un poco más lista
                  SOL
    Si fuera especial, si fuera de revista
                  LA                SOL
    Tendría el valor de cruzar el vagón
                     REsus4           RE
    Y preguntarte quién eres
                 RE
    Te sientas en frente y ni te imaginas
                  SOL
    Que llevo por ti mi falda más bonita
                   LA                   SOL
    Y al verte lanzar un bostezo al cristal
                    REsus4      RE   LA
    Se inundan mis pupilas
    
                  SIm
    
  •   F
    e|-----------------|-----------------|-----------------|-----------------|
    B|-----------------|-----------------|-1---------------|---------1--3--1-|
    G|---------0-------|---------0-------|---------0-------|---------0-------|
    D|-----3-------3---|-----3-------3---|-----3-------3---|-----3-----------|
    A|---3---3---3---3-|---3---3---3---3-|---3---3---3---3-|---3---3---------|
    E|-1---------------|-1---------------|-1---------------|-1---------------|
    
      C                                   Dm
    e|-----------------|--------------0--|-1-------0-------|---------1--0----|
    B|-1---------------|-----------1-----|-----3-------3---|-3---3---------3-|
    G|---------0-------|--------0--------|---2---2---2---2-|---2---2---------|
    D|-----2-------2---|-----2-----------|-0---------------|-----------------|
    A|---3---3---3---3-|---3---3---------|-----------------|-----------------|
    E|-3---------------|-3---------------|-----------------|-----------------|
    
      Bb                                  C
    e|-----------------|------------0--1-|-0----------0--3-|-8---------------|
    B|-3-------1-------|-------3-3-------|---------1-------|-----------------|
    G|-----3-------3---|-3---3-----------|-----0-----------|-----------------|
    
  • +
    ¡Colabora con nosotros!
    Envíanos tu versión de esta canción
  • Tutorial
    HD
    Como tocar a guitarra Jueves
    7:12
  • Tutorial
    Como tocar Jueves de la oreja de Van Tales
    5:13

Letra de Jueves
Si fuera más guapa y un poco más lista,
si fuera especial, si fuera de revista
tendría el valor de cruzar el vagón
y preguntarte quién eres.
Te sientas enfrente y ni te imaginas
que llevo por tí mi falda más bonita
y al verte lanzar un bostezo al cristal
se inundan mis pupilas.
Y de pronto me miras, te miro y suspiras,
yo cierro los ojos,
tú apartas la vista;
apenas respiro,
me hago pequeñita
y me pongo a temblar.
Y así pasan los días
de lunes a viernes
como las golondrinas
del poema de Bécquer,
y de estación a estación,
en frente tú y yo,
va y viene el silencio.
Y de pronto me miras, te miro y suspiras,
yo cierro los ojos, tú apartas la vista;
apenas respiro, me hago pequeñita
y me pongo a temblar.
Y entonces ocurre,
despiertan mis labios,
pronuncian tu nombre tartamudeando.
Supongo que piensas:
¡qué chica más tonta!
... y me quiero morir.
Pero el tiempo se para
y te acercas diciendo:
"Yo aún no te conozco
y ya te echaba de menos.
Cada mañana rechazo el directo
y elijo este tren."
Y ya estamos llegando,
mi vida ha cambiado,
un día especial este 11 de marzo...
Me tomas la mano,
llegamos a un túnel que apaga la luz.
Te encuentro la cara
gracias a mis manos.
Me vuelvo valiente
y te beso en los labios.
Dices que me quieres
y yo te regalo
El último soplo de mi corazón.
Out-tro: G / D / Em / C / D / C / G




[Jueves acordes][Jueves chords]
© LaCuerda.net · notícia legal · privacidade · es · en · pt · contato
DINAMICO