Cifras para Violão e Guitarra » O »La Oreja de Van Gogh » Puedes contar conmigo (Tab)

Puedes contar conmigo
La Oreja de Van Gogh

Letras, cifras e tablaturas para violão, guitarra, piano, ukulele e baixo

  • FA                          DO 
    Un café con sal,ganas de llorar
              REm                     LA#                   DO
    mi mundo empezando a temblar, presiente que se acerca el final
    FA                                  DO
    no quiero ganar, ahora eso ¿qué más da?
                 REm               LA#                  DO
    estoy cansada ya de inventar excusas que no saben andar
           REm  LA#                     FA
    y sólo quedarán los buenos momentos de ayer
               REm LA#                       DO 
    que fueron de los dos y hoy sólo quiero creer
    
    
      FA                               DO
    Que recordarás las tardes de invierno por Madrid
                      REm
    las noches enteras sin dormir, 
                          LA7                 FA
    la vida pasaba y yo sentía que me iba a morir de amor
    
  • Intro: F#
    F#
    Un café con sal
               C#sus2
    Ganas de llorar
                 D#m
    un mundo empezando a temblar
      Bsus2                   C#sus2
    presiento que se acerca el final
    
    
    F#
    No quiero ganar
               C#sus2
    ahora eso qué más da
                 D#m
    estoy cansada ya de gritar
      Bsus2                   C#sus2
    las cosas que no saben andar
    
    
  • F                            C
    Un café con sal, ganas de llorar
                Dm                     Bb                      C
    mi mundo empezando a temblar, presiente que se acerca el final.
    
    no quiero ganar, ahora eso ¿qué más da?
    estoy cansada ya de inventar, excusas que no saben andar.
    
    PRECORO
           Dm  Bb                    FA
    Y sólo quedarán, los buenos momentos de ayer,
               Dm Bb                          C
    que fueron de los dos, y hoy sólo quiero creer.
    
    
    CORO
      F                               C
    Que recordarás, las tardes de invierno por Madrid,
                      Dm
    las noches enteras, sin dormir,
    
  • e--------------------------------|
    B--------------------------------|
    G------6-----6-----6-----6-----6-|
    D--4-4---4-4---4-4---4-4---4-4---|
    A--------------------------------|
    E--------------------------------|
      
      Un cafe...
    e--------------------------------|
    B--------------------------------|
    G-/11-10-8-6-------6-----6-----6-|
    D--------------4-4---4-4---4-4---|
    A--------------------------------|
    E--------------------------------|
    
                 ganas de ...
    e--------------------------------|
    B--------------------------------|
    G--------------------------------|
    D-----6-----6/11-10-8-6------6---|
    
  • e|--------------------------------------|
    B|--------------------------------------|
    G|-------11-----10-----8----------------|
    D|---------------------------11-----11/9|
    A|---9-9----9-9----9-9---9-9----9-9-----|
    E|--------------------------------------|
    
    e|----------------------------------------|
    B|----------------------------------------|
    G|---------------------------------6/11---|
    D|-----11-----11-----11-----11------------|
    A|-9-9----9-9----9-9----9-9----9-9--------|
    E|----------------------------------------|
    
        Un cafe con sal.
    e|--------------------------------------|
    B|--------------------------------------|
    G|-------11-----10-----8----------------|
    D|---------------------------11-----11/9|
    A|---9-9----9-9----9-9---9-9----9-9-----|
    
  • Para la mujer mas hermosa de esta tierra.
    Nathaly Puchi te amo
    
      
      Estrofa:
    G -------------------------------------------------------------------------------------
    D -------------------------------------------------------------------------------------
    A -------------------------------------------------------------------------------------
    E /14-14----14-14-14---14-14-14---14-14-14---14-14-14---14-14-14---14-14-14---14-14-14-
    
    G -------------------------------------------------------------------------------------
    D -------------------------------------------------------------------------------------
    A -------------------------------------------------------------------------------------
    E 14-14-14---14-14-14---14-14-14---14-14-14-13-11-9-9----9-9-9---9-9-9---9-9-9-7-9-11--
    
    G -------------------------------------------------------------------------------------
    D -------------------------------------------------------------------------------------
    A ---------------------
  • +
    ¡Colabora con nosotros!
    Envíanos tu versión de esta canción

Letra de Puedes contar conmigo
Un café con sal
Ganas de llorar
un mundo empezando a temblar
presiento que se acerca el final
No quiero ganar
ahora eso qué más da
estoy cansada ya de gritar
las cosas que no saben andar
precoro
sólo quedarán
los buenos momemtos de ayer
que fueron de los dos
y hoy sólo quiero creer
Que recordarás las tardes de invierno por Madrid
Las noches enteras sin dormir la vida pasaba
y yo sentía que me iba a morir de amor
al verte esperando en mi portal
sentado en el suelo sin pensar
que puedes contar conmigo, ohh
estrofa 2
Nunca hubo maldad
sólo ingenuidad
pretendiendo hacernos creer
que el mundo estaba a nuestros pies
Cuando el sueño venga a por mi
en silencio voy a construir
una vida a todo color
donde vivamos juntos los dos
precoro
sólo quedarán
los buenos momemtos de ayer
que fueron de los dos
y hoy sólo quiero creer
Que recordarás las tardes de invierno por Madrid
Las noches enteras sin dormir la vida pasaba
y yo sentía que me iba a morir de amor
al verte esperando en mi portal
sentado en el suelo sin pensar
que puedes contar conmigo, para siempre
coda:
Y no puedo evitar
echarte de menos mientras das
la mano a mi tiempo y te vas
yo siento que quiero verte verte
y pienso que...
Que recordarás las tardes de invierno por Madrid
Las noches enteras sin dormir la vida pasaba
y yo sentía que me iba a morir de amor
al verte esperando en mi portal
sentado en el suelo sin pensar
que puedes contar conmigo,
Que recordarás las tardes de invierno por Madrid
Las noches enteras sin dormir la vida se pasa
y yo me muero me muero por ti
para realizar la nota sus2 tanto en C# como en B
deben dejar al aire la cuerda G y eso es todo.
Cualquier duda comuníquense conmigo al
Correo thebigboss357@hotmail.com




[Puedes contar conmigo acordes][Puedes contar conmigo chords]
© LaCuerda.net · notícia legal · privacidade · es · en · pt · contato
DINAMICO